  0
SECTION
  2
HEADER
  9
$ACADVER
  1
AC1015
  9
$ACADMAINTVER
 70
     6
  9
$DWGCODEPAGE
  3
ANSI_1250
  9
$INSBASE
 10
0.0
 20
0.0
 30
0.0
  9
$EXTMIN
 10
-43.7805
 20
-25.5436
 30
0.0
  9
$EXTMAX
 10
43.7635
 20
25.5694
 30
0.0
  9
$LIMMIN
 10
0.0
 20
0.0
  9
$LIMMAX
 10
12.0
 20
9.0
  9
$ORTHOMODE
 70
     0
  9
$REGENMODE
 70
     1
  9
$FILLMODE
 70
     1
  9
$QTEXTMODE
 70
     0
  9
$MIRRTEXT
 70
     1
  9
$LTSCALE
 40
1.0
  9
$ATTMODE
 70
     1
  9
$TEXTSIZE
 40
0.2
  9
$TRACEWID
 40
0.05
  9
$TEXTSTYLE
  7
Standard
  9
$CLAYER
  8
0
  9
$CELTYPE
  6
ByLayer
  9
$CECOLOR
 62
   256
  9
$CELTSCALE
 40
1.0
  9
$DISPSILH
 70
     0
  9
$DIMSCALE
 40
1.0
  9
$DIMASZ
 40
0.18
  9
$DIMEXO
 40
0.0625
  9
$DIMDLI
 40
0.38
  9
$DIMRND
 40
0.0
  9
$DIMDLE
 40
0.0
  9
$DIMEXE
 40
0.18
  9
$DIMTP
 40
0.0
  9
$DIMTM
 40
0.0
  9
$DIMTXT
 40
0.18
  9
$DIMCEN
 40
0.09
  9
$DIMTSZ
 40
0.0
  9
$DIMTOL
 70
     0
  9
$DIMLIM
 70
     0
  9
$DIMTIH
 70
     1
  9
$DIMTOH
 70
     1
  9
$DIMSE1
 70
     0
  9
$DIMSE2
 70
     0
  9
$DIMTAD
 70
     0
  9
$DIMZIN
 70
     0
  9
$DIMBLK
  1

  9
$DIMASO
 70
     1
  9
$DIMSHO
 70
     1
  9
$DIMPOST
  1

  9
$DIMAPOST
  1

  9
$DIMALT
 70
     0
  9
$DIMALTD
 70
     2
  9
$DIMALTF
 40
25.4
  9
$DIMLFAC
 40
1.0
  9
$DIMTOFL
 70
     0
  9
$DIMTVP
 40
0.0
  9
$DIMTIX
 70
     0
  9
$DIMSOXD
 70
     0
  9
$DIMSAH
 70
     0
  9
$DIMBLK1
  1

  9
$DIMBLK2
  1

  9
$DIMSTYLE
  2
Standard
  9
$DIMCLRD
 70
     0
  9
$DIMCLRE
 70
     0
  9
$DIMCLRT
 70
     0
  9
$DIMTFAC
 40
1.0
  9
$DIMGAP
 40
0.09
  9
$DIMJUST
 70
     0
  9
$DIMSD1
 70
     0
  9
$DIMSD2
 70
     0
  9
$DIMTOLJ
 70
     1
  9
$DIMTZIN
 70
     0
  9
$DIMALTZ
 70
     0
  9
$DIMALTTZ
 70
     0
  9
$DIMUPT
 70
     0
  9
$DIMDEC
 70
     4
  9
$DIMTDEC
 70
     4
  9
$DIMALTU
 70
     2
  9
$DIMALTTD
 70
     2
  9
$DIMTXSTY
  7
Standard
  9
$DIMAUNIT
 70
     0
  9
$DIMADEC
 70
     0
  9
$DIMALTRND
 40
0.0
  9
$DIMAZIN
 70
     0
  9
$DIMDSEP
 70
    46
  9
$DIMATFIT
 70
     3
  9
$DIMFRAC
 70
     0
  9
$DIMLDRBLK
  1

  9
$DIMLUNIT
 70
     2
  9
$DIMLWD
 70
    -2
  9
$DIMLWE
 70
    -2
  9
$DIMTMOVE
 70
     0
  9
$LUNITS
 70
     2
  9
$LUPREC
 70
     4
  9
$SKETCHINC
 40
0.1
  9
$FILLETRAD
 40
0.5
  9
$AUNITS
 70
     0
  9
$AUPREC
 70
     0
  9
$MENU
  1
.
  9
$ELEVATION
 40
0.0
  9
$PELEVATION
 40
0.0
  9
$THICKNESS
 40
0.0
  9
$LIMCHECK
 70
     0
  9
$CHAMFERA
 40
0.5
  9
$CHAMFERB
 40
0.5
  9
$CHAMFERC
 40
1.0
  9
$CHAMFERD
 40
0.0
  9
$SKPOLY
 70
     0
  9
$TDCREATE
 40
2457653.399485555
  9
$TDUCREATE
 40
2457653.316152222
  9
$TDUPDATE
 40
2457653.399485567
  9
$TDUUPDATE
 40
2457653.316152234
  9
$TDINDWG
 40
0.0000000116
  9
$TDUSRTIMER
 40
0.0000000116
  9
$USRTIMER
 70
     1
  9
$ANGBASE
 50
0.0
  9
$ANGDIR
 70
     0
  9
$PDMODE
 70
     0
  9
$PDSIZE
 40
0.0
  9
$PLINEWID
 40
0.0
  9
$SPLFRAME
 70
     0
  9
$SPLINETYPE
 70
     6
  9
$SPLINESEGS
 70
     8
  9
$HANDSEED
  5
1F3
  9
$SURFTAB1
 70
     6
  9
$SURFTAB2
 70
     6
  9
$SURFTYPE
 70
     6
  9
$SURFU
 70
     6
  9
$SURFV
 70
     6
  9
$UCSBASE
  2

  9
$UCSNAME
  2

  9
$UCSORG
 10
0.0
 20
0.0
 30
0.0
  9
$UCSXDIR
 10
1.0
 20
0.0
 30
0.0
  9
$UCSYDIR
 10
0.0
 20
1.0
 30
0.0
  9
$UCSORTHOREF
  2

  9
$UCSORTHOVIEW
 70
     0
  9
$UCSORGTOP
 10
0.0
 20
0.0
 30
0.0
  9
$UCSORGBOTTOM
 10
0.0
 20
0.0
 30
0.0
  9
$UCSORGLEFT
 10
0.0
 20
0.0
 30
0.0
  9
$UCSORGRIGHT
 10
0.0
 20
0.0
 30
0.0
  9
$UCSORGFRONT
 10
0.0
 20
0.0
 30
0.0
  9
$UCSORGBACK
 10
0.0
 20
0.0
 30
0.0
  9
$PUCSBASE
  2

  9
$PUCSNAME
  2

  9
$PUCSORG
 10
0.0
 20
0.0
 30
0.0
  9
$PUCSXDIR
 10
1.0
 20
0.0
 30
0.0
  9
$PUCSYDIR
 10
0.0
 20
1.0
 30
0.0
  9
$PUCSORTHOREF
  2

  9
$PUCSORTHOVIEW
 70
     0
  9
$PUCSORGTOP
 10
0.0
 20
0.0
 30
0.0
  9
$PUCSORGBOTTOM
 10
0.0
 20
0.0
 30
0.0
  9
$PUCSORGLEFT
 10
0.0
 20
0.0
 30
0.0
  9
$PUCSORGRIGHT
 10
0.0
 20
0.0
 30
0.0
  9
$PUCSORGFRONT
 10
0.0
 20
0.0
 30
0.0
  9
$PUCSORGBACK
 10
0.0
 20
0.0
 30
0.0
  9
$USERI1
 70
     0
  9
$USERI2
 70
     0
  9
$USERI3
 70
     0
  9
$USERI4
 70
     0
  9
$USERI5
 70
     0
  9
$USERR1
 40
0.0
  9
$USERR2
 40
0.0
  9
$USERR3
 40
0.0
  9
$USERR4
 40
0.0
  9
$USERR5
 40
0.0
  9
$WORLDVIEW
 70
     1
  9
$SHADEDGE
 70
     3
  9
$SHADEDIF
 70
    70
  9
$TILEMODE
 70
     1
  9
$MAXACTVP
 70
    64
  9
$PINSBASE
 10
0.0
 20
0.0
 30
0.0
  9
$PLIMCHECK
 70
     0
  9
$PEXTMIN
 10
1.000000000000000E+20
 20
1.000000000000000E+20
 30
1.000000000000000E+20
  9
$PEXTMAX
 10
-1.000000000000000E+20
 20
-1.000000000000000E+20
 30
-1.000000000000000E+20
  9
$PLIMMIN
 10
0.0
 20
0.0
  9
$PLIMMAX
 10
12.0
 20
9.0
  9
$UNITMODE
 70
     0
  9
$VISRETAIN
 70
     1
  9
$PLINEGEN
 70
     0
  9
$PSLTSCALE
 70
     1
  9
$TREEDEPTH
 70
  3020
  9
$CMLSTYLE
  2
Standard
  9
$CMLJUST
 70
     0
  9
$CMLSCALE
 40
1.0
  9
$PROXYGRAPHICS
 70
     1
  9
$MEASUREMENT
 70
     0
  9
$CELWEIGHT
370
    -1
  9
$ENDCAPS
280
     0
  9
$JOINSTYLE
280
     0
  9
$LWDISPLAY
290
     0
  9
$INSUNITS
 70
     4
  9
$HYPERLINKBASE
  1

  9
$STYLESHEET
  1

  9
$XEDIT
290
     1
  9
$CEPSNTYPE
380
     0
  9
$PSTYLEMODE
290
     1
  9
$FINGERPRINTGUID
  2
{D2C2D254-C184-445A-AB0E-0E1A37EE3599}
  9
$VERSIONGUID
  2
{FAEB1C32-E019-11D5-929B-00C0DF256EC4}
  9
$EXTNAMES
290
     1
  9
$PSVPSCALE
 40
0.0
  9
$OLESTARTUP
290
     0
  0
ENDSEC
  0
SECTION
  2
CLASSES
  0
CLASS
  1
ACDBDICTIONARYWDFLT
  2
AcDbDictionaryWithDefault
  3
ObjectDBX Classes
 90
        0
280
     0
281
     0
  0
CLASS
  1
VISUALSTYLE
  2
AcDbVisualStyle
  3
ObjectDBX Classes
 90
     4095
280
     0
281
     0
  0
CLASS
  1
MATERIAL
  2
AcDbMaterial
  3
ObjectDBX Classes
 90
     1153
280
     0
281
     0
  0
CLASS
  1
DICTIONARYVAR
  2
AcDbDictionaryVar
  3
ObjectDBX Classes
 90
        0
280
     0
281
     0
  0
CLASS
  1
ACDBPLACEHOLDER
  2
AcDbPlaceHolder
  3
ObjectDBX Classes
 90
        0
280
     0
281
     0
  0
CLASS
  1
LAYOUT
  2
AcDbLayout
  3
ObjectDBX Classes
 90
        0
280
     0
281
     0
  0
ENDSEC
  0
SECTION
  2
TABLES
  0
TABLE
  2
VPORT
  5
8
330
0
100
AcDbSymbolTable
 70
     1
  0
VPORT
  5
29
330
8
100
AcDbSymbolTableRecord
100
AcDbViewportTableRecord
  2
*Active
 70
     0
 10
0.0
 20
0.0
 11
1.0
 21
1.0
 12
10.42990654205607
 22
4.5
 13
0.0
 23
0.0
 14
0.5
 24
0.5
 15
0.5
 25
0.5
 16
0.0
 26
0.0
 36
1.0
 17
0.0
 27
0.0
 37
0.0
 40
9.0
 41
1.972972972850329
 42
50.0
 43
0.0
 44
0.0
 50
0.0
 51
0.0
 71
     0
 72
   100
 73
     1
 74
     3
 75
     0
 76
     0
 77
     0
 78
     0
281
     0
 65
     1
110
0.0
120
0.0
130
0.0
111
1.0
121
0.0
131
0.0
112
0.0
122
1.0
132
0.0
 79
     0
146
0.0
  0
ENDTAB
  0
TABLE
  2
LTYPE
  5
5
330
0
100
AcDbSymbolTable
 70
    39
  0
LTYPE
  5
14
330
5
100
AcDbSymbolTableRecord
100
AcDbLinetypeTableRecord
  2
ByBlock
 70
     0
  3

 72
    65
 73
     0
 40
0.0
  0
LTYPE
  5
15
330
5
100
AcDbSymbolTableRecord
100
AcDbLinetypeTableRecord
  2
ByLayer
 70
     0
  3

 72
    65
 73
     0
 40
0.0
  0
LTYPE
  5
16
330
5
100
AcDbSymbolTableRecord
100
AcDbLinetypeTableRecord
  2
Continuous
 70
     0
  3
Solid line
 72
    65
 73
     0
 40
0.0
  0
LTYPE
  5
95
330
5
100
AcDbSymbolTableRecord
100
AcDbLinetypeTableRecord
  2
New Line1
 70
     0
  3

 72
    65
 73
     2
 40
1.0
 49
0.5
 74
     4
 75
     0
340
0
 46
1.0
 50
0.0
 44
0.0
 45
0.0
 49
-0.5
 74
     4
 75
     0
340
0
 46
1.0
 50
0.0
 44
0.0
 45
0.0
  0
LTYPE
  5
97
330
5
100
AcDbSymbolTableRecord
100
AcDbLinetypeTableRecord
  2
New Line2
 70
     0
  3

 72
    65
 73
     2
 40
1.0
 49
0.5
 74
     4
 75
     0
340
0
 46
1.0
 50
0.0
 44
0.0
 45
0.0
 49
-0.5
 74
     4
 75
     0
340
0
 46
1.0
 50
0.0
 44
0.0
 45
0.0
  0
LTYPE
  5
99
330
5
100
AcDbSymbolTableRecord
100
AcDbLinetypeTableRecord
  2
New Line3
 70
     0
  3

 72
    65
 73
     2
 40
1.0
 49
0.5
 74
     4
 75
     0
340
0
 46
1.0
 50
0.0
 44
0.0
 45
0.0
 49
-0.5
 74
     4
 75
     0
340
0
 46
1.0
 50
0.0
 44
0.0
 45
0.0
  0
LTYPE
  5
9B
330
5
100
AcDbSymbolTableRecord
100
AcDbLinetypeTableRecord
  2
New Line4
 70
     0
  3

 72
    65
 73
     2
 40
1.0
 49
0.5
 74
     4
 75
     0
340
0
 46
1.0
 50
0.0
 44
0.0
 45
0.0
 49
-0.5
 74
     4
 75
     0
340
0
 46
1.0
 50
0.0
 44
0.0
 45
0.0
  0
LTYPE
  5
9D
330
5
100
AcDbSymbolTableRecord
100
AcDbLinetypeTableRecord
  2
New Line5
 70
     0
  3

 72
    65
 73
     2
 40
1.0
 49
0.5
 74
     4
 75
     0
340
0
 46
1.0
 50
0.0
 44
0.0
 45
0.0
 49
-0.5
 74
     4
 75
     0
340
0
 46
1.0
 50
0.0
 44
0.0
 45
0.0
  0
LTYPE
  5
9F
330
5
100
AcDbSymbolTableRecord
100
AcDbLinetypeTableRecord
  2
New Line6
 70
     0
  3

 72
    65
 73
     2
 40
1.0
 49
0.5
 74
     4
 75
     0
340
0
 46
1.0
 50
0.0
 44
0.0
 45
0.0
 49
-0.5
 74
     4
 75
     0
340
0
 46
1.0
 50
0.0
 44
0.0
 45
0.0
  0
LTYPE
  5
A1
330
5
100
AcDbSymbolTableRecord
100
AcDbLinetypeTableRecord
  2
New Line7
 70
     0
  3

 72
    65
 73
     2
 40
1.0
 49
0.5
 74
     4
 75
     0
340
0
 46
1.0
 50
0.0
 44
0.0
 45
0.0
 49
-0.5
 74
     4
 75
     0
340
0
 46
1.0
 50
0.0
 44
0.0
 45
0.0
  0
LTYPE
  5
A3
330
5
100
AcDbSymbolTableRecord
100
AcDbLinetypeTableRecord
  2
New Line8
 70
     0
  3

 72
    65
 73
     2
 40
1.0
 49
0.5
 74
     4
 75
     0
340
0
 46
1.0
 50
0.0
 44
0.0
 45
0.0
 49
-0.5
 74
     4
 75
     0
340
0
 46
1.0
 50
0.0
 44
0.0
 45
0.0
  0
LTYPE
  5
A5
330
5
100
AcDbSymbolTableRecord
100
AcDbLinetypeTableRecord
  2
New Line9
 70
     0
  3

 72
    65
 73
     2
 40
1.0
 49
0.5
 74
     4
 75
     0
340
0
 46
1.0
 50
0.0
 44
0.0
 45
0.0
 49
-0.5
 74
     4
 75
     0
340
0
 46
1.0
 50
0.0
 44
0.0
 45
0.0
  0
LTYPE
  5
A7
330
5
100
AcDbSymbolTableRecord
100
AcDbLinetypeTableRecord
  2
New Line10
 70
     0
  3

 72
    65
 73
     2
 40
1.0
 49
0.5
 74
     4
 75
     0
340
0
 46
1.0
 50
0.0
 44
0.0
 45
0.0
 49
-0.5
 74
     4
 75
     0
340
0
 46
1.0
 50
0.0
 44
0.0
 45
0.0
  0
LTYPE
  5
A9
330
5
100
AcDbSymbolTableRecord
100
AcDbLinetypeTableRecord
  2
New Line11
 70
     0
  3

 72
    65
 73
     2
 40
1.0
 49
0.5
 74
     4
 75
     0
340
0
 46
1.0
 50
0.0
 44
0.0
 45
0.0
 49
-0.5
 74
     4
 75
     0
340
0
 46
1.0
 50
0.0
 44
0.0
 45
0.0
  0
LTYPE
  5
AB
330
5
100
AcDbSymbolTableRecord
100
AcDbLinetypeTableRecord
  2
New Line12
 70
     0
  3

 72
    65
 73
     2
 40
1.0
 49
0.5
 74
     4
 75
     0
340
0
 46
1.0
 50
0.0
 44
0.0
 45
0.0
 49
-0.5
 74
     4
 75
     0
340
0
 46
1.0
 50
0.0
 44
0.0
 45
0.0
  0
LTYPE
  5
AD
330
5
100
AcDbSymbolTableRecord
100
AcDbLinetypeTableRecord
  2
New Line13
 70
     0
  3

 72
    65
 73
     2
 40
1.0
 49
0.5
 74
     4
 75
     0
340
0
 46
1.0
 50
0.0
 44
0.0
 45
0.0
 49
-0.5
 74
     4
 75
     0
340
0
 46
1.0
 50
0.0
 44
0.0
 45
0.0
  0
LTYPE
  5
AF
330
5
100
AcDbSymbolTableRecord
100
AcDbLinetypeTableRecord
  2
New Line14
 70
     0
  3

 72
    65
 73
     2
 40
1.0
 49
0.5
 74
     4
 75
     0
340
0
 46
1.0
 50
0.0
 44
0.0
 45
0.0
 49
-0.5
 74
     4
 75
     0
340
0
 46
1.0
 50
0.0
 44
0.0
 45
0.0
  0
LTYPE
  5
B1
330
5
100
AcDbSymbolTableRecord
100
AcDbLinetypeTableRecord
  2
New Line15
 70
     0
  3

 72
    65
 73
     2
 40
1.0
 49
0.5
 74
     4
 75
     0
340
0
 46
1.0
 50
0.0
 44
0.0
 45
0.0
 49
-0.5
 74
     4
 75
     0
340
0
 46
1.0
 50
0.0
 44
0.0
 45
0.0
  0
LTYPE
  5
B3
330
5
100
AcDbSymbolTableRecord
100
AcDbLinetypeTableRecord
  2
New Line16
 70
     0
  3

 72
    65
 73
     2
 40
1.0
 49
0.5
 74
     4
 75
     0
340
0
 46
1.0
 50
0.0
 44
0.0
 45
0.0
 49
-0.5
 74
     4
 75
     0
340
0
 46
1.0
 50
0.0
 44
0.0
 45
0.0
  0
LTYPE
  5
B5
330
5
100
AcDbSymbolTableRecord
100
AcDbLinetypeTableRecord
  2
New Line17
 70
     0
  3

 72
    65
 73
     2
 40
1.0
 49
0.5
 74
     4
 75
     0
340
0
 46
1.0
 50
0.0
 44
0.0
 45
0.0
 49
-0.5
 74
     4
 75
     0
340
0
 46
1.0
 50
0.0
 44
0.0
 45
0.0
  0
LTYPE
  5
B7
330
5
100
AcDbSymbolTableRecord
100
AcDbLinetypeTableRecord
  2
New Line18
 70
     0
  3

 72
    65
 73
     2
 40
1.0
 49
0.5
 74
     4
 75
     0
340
0
 46
1.0
 50
0.0
 44
0.0
 45
0.0
 49
-0.5
 74
     4
 75
     0
340
0
 46
1.0
 50
0.0
 44
0.0
 45
0.0
  0
LTYPE
  5
B9
330
5
100
AcDbSymbolTableRecord
100
AcDbLinetypeTableRecord
  2
New Line19
 70
     0
  3

 72
    65
 73
     2
 40
1.0
 49
0.5
 74
     4
 75
     0
340
0
 46
1.0
 50
0.0
 44
0.0
 45
0.0
 49
-0.5
 74
     4
 75
     0
340
0
 46
1.0
 50
0.0
 44
0.0
 45
0.0
  0
LTYPE
  5
BB
330
5
100
AcDbSymbolTableRecord
100
AcDbLinetypeTableRecord
  2
New Line20
 70
     0
  3

 72
    65
 73
     2
 40
1.0
 49
0.5
 74
     4
 75
     0
340
0
 46
1.0
 50
0.0
 44
0.0
 45
0.0
 49
-0.5
 74
     4
 75
     0
340
0
 46
1.0
 50
0.0
 44
0.0
 45
0.0
  0
LTYPE
  5
BD
330
5
100
AcDbSymbolTableRecord
100
AcDbLinetypeTableRecord
  2
New Line21
 70
     0
  3

 72
    65
 73
     2
 40
1.0
 49
0.5
 74
     4
 75
     0
340
0
 46
1.0
 50
0.0
 44
0.0
 45
0.0
 49
-0.5
 74
     4
 75
     0
340
0
 46
1.0
 50
0.0
 44
0.0
 45
0.0
  0
LTYPE
  5
BF
330
5
100
AcDbSymbolTableRecord
100
AcDbLinetypeTableRecord
  2
New Line22
 70
     0
  3

 72
    65
 73
     2
 40
1.0
 49
0.5
 74
     4
 75
     0
340
0
 46
1.0
 50
0.0
 44
0.0
 45
0.0
 49
-0.5
 74
     4
 75
     0
340
0
 46
1.0
 50
0.0
 44
0.0
 45
0.0
  0
LTYPE
  5
C1
330
5
100
AcDbSymbolTableRecord
100
AcDbLinetypeTableRecord
  2
New Line23
 70
     0
  3

 72
    65
 73
     2
 40
1.0
 49
0.5
 74
     4
 75
     0
340
0
 46
1.0
 50
0.0
 44
0.0
 45
0.0
 49
-0.5
 74
     4
 75
     0
340
0
 46
1.0
 50
0.0
 44
0.0
 45
0.0
  0
LTYPE
  5
C3
330
5
100
AcDbSymbolTableRecord
100
AcDbLinetypeTableRecord
  2
New Line24
 70
     0
  3

 72
    65
 73
     2
 40
1.0
 49
0.5
 74
     4
 75
     0
340
0
 46
1.0
 50
0.0
 44
0.0
 45
0.0
 49
-0.5
 74
     4
 75
     0
340
0
 46
1.0
 50
0.0
 44
0.0
 45
0.0
  0
LTYPE
  5
C5
330
5
100
AcDbSymbolTableRecord
100
AcDbLinetypeTableRecord
  2
New Line25
 70
     0
  3

 72
    65
 73
     2
 40
1.0
 49
0.5
 74
     4
 75
     0
340
0
 46
1.0
 50
0.0
 44
0.0
 45
0.0
 49
-0.5
 74
     4
 75
     0
340
0
 46
1.0
 50
0.0
 44
0.0
 45
0.0
  0
LTYPE
  5
C7
330
5
100
AcDbSymbolTableRecord
100
AcDbLinetypeTableRecord
  2
New Line26
 70
     0
  3

 72
    65
 73
     2
 40
1.0
 49
0.5
 74
     4
 75
     0
340
0
 46
1.0
 50
0.0
 44
0.0
 45
0.0
 49
-0.5
 74
     4
 75
     0
340
0
 46
1.0
 50
0.0
 44
0.0
 45
0.0
  0
LTYPE
  5
C9
330
5
100
AcDbSymbolTableRecord
100
AcDbLinetypeTableRecord
  2
New Line27
 70
     0
  3

 72
    65
 73
     2
 40
1.0
 49
0.5
 74
     4
 75
     0
340
0
 46
1.0
 50
0.0
 44
0.0
 45
0.0
 49
-0.5
 74
     4
 75
     0
340
0
 46
1.0
 50
0.0
 44
0.0
 45
0.0
  0
LTYPE
  5
CB
330
5
100
AcDbSymbolTableRecord
100
AcDbLinetypeTableRecord
  2
New Line28
 70
     0
  3

 72
    65
 73
     2
 40
1.0
 49
0.5
 74
     4
 75
     0
340
0
 46
1.0
 50
0.0
 44
0.0
 45
0.0
 49
-0.5
 74
     4
 75
     0
340
0
 46
1.0
 50
0.0
 44
0.0
 45
0.0
  0
LTYPE
  5
CD
330
5
100
AcDbSymbolTableRecord
100
AcDbLinetypeTableRecord
  2
New Line29
 70
     0
  3

 72
    65
 73
     2
 40
1.0
 49
0.5
 74
     4
 75
     0
340
0
 46
1.0
 50
0.0
 44
0.0
 45
0.0
 49
-0.5
 74
     4
 75
     0
340
0
 46
1.0
 50
0.0
 44
0.0
 45
0.0
  0
LTYPE
  5
CF
330
5
100
AcDbSymbolTableRecord
100
AcDbLinetypeTableRecord
  2
New Line30
 70
     0
  3

 72
    65
 73
     2
 40
1.0
 49
0.5
 74
     4
 75
     0
340
0
 46
1.0
 50
0.0
 44
0.0
 45
0.0
 49
-0.5
 74
     4
 75
     0
340
0
 46
1.0
 50
0.0
 44
0.0
 45
0.0
  0
LTYPE
  5
D1
330
5
100
AcDbSymbolTableRecord
100
AcDbLinetypeTableRecord
  2
New Line31
 70
     0
  3

 72
    65
 73
     2
 40
1.0
 49
0.5
 74
     4
 75
     0
340
0
 46
1.0
 50
0.0
 44
0.0
 45
0.0
 49
-0.5
 74
     4
 75
     0
340
0
 46
1.0
 50
0.0
 44
0.0
 45
0.0
  0
LTYPE
  5
D3
330
5
100
AcDbSymbolTableRecord
100
AcDbLinetypeTableRecord
  2
New Line32
 70
     0
  3

 72
    65
 73
     2
 40
1.0
 49
0.5
 74
     4
 75
     0
340
0
 46
1.0
 50
0.0
 44
0.0
 45
0.0
 49
-0.5
 74
     4
 75
     0
340
0
 46
1.0
 50
0.0
 44
0.0
 45
0.0
  0
LTYPE
  5
D5
330
5
100
AcDbSymbolTableRecord
100
AcDbLinetypeTableRecord
  2
New Line33
 70
     0
  3

 72
    65
 73
     2
 40
1.0
 49
0.5
 74
     4
 75
     0
340
0
 46
1.0
 50
0.0
 44
0.0
 45
0.0
 49
-0.5
 74
     4
 75
     0
340
0
 46
1.0
 50
0.0
 44
0.0
 45
0.0
  0
LTYPE
  5
D7
330
5
100
AcDbSymbolTableRecord
100
AcDbLinetypeTableRecord
  2
New Line34
 70
     0
  3

 72
    65
 73
     2
 40
1.0
 49
0.5
 74
     4
 75
     0
340
0
 46
1.0
 50
0.0
 44
0.0
 45
0.0
 49
-0.5
 74
     4
 75
     0
340
0
 46
1.0
 50
0.0
 44
0.0
 45
0.0
  0
LTYPE
  5
D9
330
5
100
AcDbSymbolTableRecord
100
AcDbLinetypeTableRecord
  2
New Line35
 70
     0
  3

 72
    65
 73
     2
 40
1.0
 49
0.5
 74
     4
 75
     0
340
0
 46
1.0
 50
0.0
 44
0.0
 45
0.0
 49
-0.5
 74
     4
 75
     0
340
0
 46
1.0
 50
0.0
 44
0.0
 45
0.0
  0
LTYPE
  5
DB
330
5
100
AcDbSymbolTableRecord
100
AcDbLinetypeTableRecord
  2
New Line36
 70
     0
  3

 72
    65
 73
     2
 40
1.0
 49
0.5
 74
     4
 75
     0
340
0
 46
1.0
 50
0.0
 44
0.0
 45
0.0
 49
-0.5
 74
     4
 75
     0
340
0
 46
1.0
 50
0.0
 44
0.0
 45
0.0
  0
LTYPE
  5
DD
330
5
100
AcDbSymbolTableRecord
100
AcDbLinetypeTableRecord
  2
New Line37
 70
     0
  3

 72
    65
 73
     2
 40
1.0
 49
0.5
 74
     4
 75
     0
340
0
 46
1.0
 50
0.0
 44
0.0
 45
0.0
 49
-0.5
 74
     4
 75
     0
340
0
 46
1.0
 50
0.0
 44
0.0
 45
0.0
  0
LTYPE
  5
DF
330
5
100
AcDbSymbolTableRecord
100
AcDbLinetypeTableRecord
  2
New Line38
 70
     0
  3

 72
    65
 73
     2
 40
1.0
 49
0.5
 74
     4
 75
     0
340
0
 46
1.0
 50
0.0
 44
0.0
 45
0.0
 49
-0.5
 74
     4
 75
     0
340
0
 46
1.0
 50
0.0
 44
0.0
 45
0.0
  0
ENDTAB
  0
TABLE
  2
LAYER
  5
2
330
0
100
AcDbSymbolTable
 70
     2
  0
LAYER
  5
10
330
2
100
AcDbSymbolTableRecord
100
AcDbLayerTableRecord
  2
0
 70
     0
 62
     7
  6
Continuous
370
    -3
390
F
  0
LAYER
  5
40
330
2
100
AcDbSymbolTableRecord
100
AcDbLayerTableRecord
  2
Ilustrace
 70
     0
 62
     7
  6
Continuous
370
    -3
390
F
  0
ENDTAB
  0
TABLE
  2
STYLE
  5
3
330
0
100
AcDbSymbolTable
 70
     1
  0
STYLE
  5
11
330
3
100
AcDbSymbolTableRecord
100
AcDbTextStyleTableRecord
  2
Standard
 70
     0
 40
0.0
 41
1.0
 50
0.0
 71
     0
 42
0.2
  3
txt
  4

  0
ENDTAB
  0
TABLE
  2
VIEW
  5
6
330
0
100
AcDbSymbolTable
 70
     0
  0
ENDTAB
  0
TABLE
  2
UCS
  5
7
330
0
100
AcDbSymbolTable
 70
     0
  0
ENDTAB
  0
TABLE
  2
APPID
  5
9
330
0
100
AcDbSymbolTable
 70
     2
  0
APPID
  5
12
330
9
100
AcDbSymbolTableRecord
100
AcDbRegAppTableRecord
  2
ACAD
 70
     0
  0
APPID
  5
3F
330
9
100
AcDbSymbolTableRecord
100
AcDbRegAppTableRecord
  2
ODA
 70
     0
  0
ENDTAB
  0
TABLE
  2
DIMSTYLE
  5
A
330
0
100
AcDbSymbolTable
 70
     1
100
AcDbDimStyleTable
  0
DIMSTYLE
105
27
330
A
100
AcDbSymbolTableRecord
100
AcDbDimStyleTableRecord
  2
Standard
 70
     0
340
11
  0
ENDTAB
  0
TABLE
  2
BLOCK_RECORD
  5
1
330
0
100
AcDbSymbolTable
 70
     1
  0
BLOCK_RECORD
  5
1F
330
1
100
AcDbSymbolTableRecord
100
AcDbBlockTableRecord
  2
*Model_Space
340
22
  0
BLOCK_RECORD
  5
1B
330
1
100
AcDbSymbolTableRecord
100
AcDbBlockTableRecord
  2
*Paper_Space
340
1E
  0
BLOCK_RECORD
  5
23
330
1
100
AcDbSymbolTableRecord
100
AcDbBlockTableRecord
  2
*Paper_Space0
340
26
  0
ENDTAB
  0
ENDSEC
  0
SECTION
  2
BLOCKS
  0
BLOCK
  5
20
330
1F
100
AcDbEntity
  8
0
100
AcDbBlockBegin
  2
*Model_Space
 70
     0
 10
0.0
 20
0.0
 30
0.0
  3
*Model_Space
  1

  0
ENDBLK
  5
21
330
1F
100
AcDbEntity
  8
0
100
AcDbBlockEnd
  0
BLOCK
  5
1C
330
1B
100
AcDbEntity
 67
     1
  8
0
100
AcDbBlockBegin
  2
*Paper_Space
 70
     0
 10
0.0
 20
0.0
 30
0.0
  3
*Paper_Space
  1

  0
ENDBLK
  5
1D
330
1B
100
AcDbEntity
 67
     1
  8
0
100
AcDbBlockEnd
  0
BLOCK
  5
24
330
23
100
AcDbEntity
  8
0
100
AcDbBlockBegin
  2
*Paper_Space0
 70
     0
 10
0.0
 20
0.0
 30
0.0
  3
*Paper_Space0
  1

  0
ENDBLK
  5
25
330
23
100
AcDbEntity
  8
0
100
AcDbBlockEnd
  0
ENDSEC
  0
SECTION
  2
ENTITIES
  0
SPLINE
  5
41
330
1F
100
AcDbEntity
  8
Ilustrace
 62
   251
100
AcDbSpline
210
0.0
220
0.0
230
1.0
 70
    11
 71
     3
 72
    20
 73
    16
 74
     0
 42
0.0000000001
 43
0.0000000001
 40
0.0
 40
0.0
 40
0.0
 40
0.0
 40
0.2
 40
0.2
 40
0.2
 40
0.2
 40
0.4
 40
0.4
 40
0.4
 40
0.4
 40
0.6
 40
0.6
 40
0.6
 40
0.6
 40
1.0
 40
1.0
 40
1.0
 40
1.0
 10
-8.5211
 20
21.8241
 30
0.0
 10
-8.7152
 20
21.8241
 30
0.0
 10
-8.8725
 20
21.6588
 30
0.0
 10
-8.8725
 20
21.4548
 30
0.0
 10
-8.8725
 20
21.4548
 30
0.0
 10
-8.8725
 20
21.2508
 30
0.0
 10
-8.7152
 20
21.0855
 30
0.0
 10
-8.5211
 20
21.0855
 30
0.0
 10
-8.5211
 20
21.0855
 30
0.0
 10
-8.327
 20
21.0855
 30
0.0
 10
-8.1697
 20
21.2508
 30
0.0
 10
-8.1697
 20
21.4548
 30
0.0
 10
-8.1697
 20
21.4548
 30
0.0
 10
-8.1697
 20
21.6588
 30
0.0
 10
-8.327
 20
21.8241
 30
0.0
 10
-8.5211
 20
21.8241
 30
0.0
  0
SPLINE
  5
42
330
1F
100
AcDbEntity
  8
Ilustrace
 62
   251
100
AcDbSpline
210
0.0
220
0.0
230
1.0
 70
    11
 71
     3
 72
    20
 73
    16
 74
     0
 42
0.0000000001
 43
0.0000000001
 40
0.0
 40
0.0
 40
0.0
 40
0.0
 40
0.2
 40
0.2
 40
0.2
 40
0.2
 40
0.4
 40
0.4
 40
0.4
 40
0.4
 40
0.6
 40
0.6
 40
0.6
 40
0.6
 40
1.0
 40
1.0
 40
1.0
 40
1.0
 10
-42.9335
 20
21.8047
 30
0.0
 10
-43.1276
 20
21.8047
 30
0.0
 10
-43.2849
 20
21.6394
 30
0.0
 10
-43.2849
 20
21.4354
 30
0.0
 10
-43.2849
 20
21.4354
 30
0.0
 10
-43.2849
 20
21.2314
 30
0.0
 10
-43.1276
 20
21.0661
 30
0.0
 10
-42.9335
 20
21.0661
 30
0.0
 10
-42.9335
 20
21.0661
 30
0.0
 10
-42.7394
 20
21.0661
 30
0.0
 10
-42.5821
 20
21.2314
 30
0.0
 10
-42.5821
 20
21.4354
 30
0.0
 10
-42.5821
 20
21.4354
 30
0.0
 10
-42.5821
 20
21.6394
 30
0.0
 10
-42.7394
 20
21.8047
 30
0.0
 10
-42.9335
 20
21.8047
 30
0.0
  0
SPLINE
  5
43
330
1F
100
AcDbEntity
  8
Ilustrace
 62
   250
370
    30
100
AcDbSpline
210
0.0
220
0.0
230
1.0
 70
    11
 71
     3
 72
    20
 73
    16
 74
     0
 42
0.0000000001
 43
0.0000000001
 40
0.0
 40
0.0
 40
0.0
 40
0.0
 40
0.2
 40
0.2
 40
0.2
 40
0.2
 40
0.4
 40
0.4
 40
0.4
 40
0.4
 40
0.6
 40
0.6
 40
0.6
 40
0.6
 40
1.0
 40
1.0
 40
1.0
 40
1.0
 10
-42.9131
 20
21.1224
 30
0.0
 10
-43.0788
 20
21.1224
 30
0.0
 10
-43.2131
 20
21.2567
 30
0.0
 10
-43.2131
 20
21.4224
 30
0.0
 10
-43.2131
 20
21.4224
 30
0.0
 10
-43.2131
 20
21.5881
 30
0.0
 10
-43.0788
 20
21.7224
 30
0.0
 10
-42.9131
 20
21.7224
 30
0.0
 10
-42.9131
 20
21.7224
 30
0.0
 10
-42.7474
 20
21.7224
 30
0.0
 10
-42.6131
 20
21.5881
 30
0.0
 10
-42.6131
 20
21.4224
 30
0.0
 10
-42.6131
 20
21.4224
 30
0.0
 10
-42.6131
 20
21.2567
 30
0.0
 10
-42.7474
 20
21.1224
 30
0.0
 10
-42.9131
 20
21.1224
 30
0.0
  0
SPLINE
  5
44
330
1F
100
AcDbEntity
  8
Ilustrace
 62
   250
370
    30
100
AcDbSpline
210
0.0
220
0.0
230
1.0
 70
    11
 71
     3
 72
    20
 73
    16
 74
     0
 42
0.0000000001
 43
0.0000000001
 40
0.0
 40
0.0
 40
0.0
 40
0.0
 40
0.2
 40
0.2
 40
0.2
 40
0.2
 40
0.4
 40
0.4
 40
0.4
 40
0.4
 40
0.6
 40
0.6
 40
0.6
 40
0.6
 40
1.0
 40
1.0
 40
1.0
 40
1.0
 10
-8.534
 20
21.161
 30
0.0
 10
-8.6997
 20
21.161
 30
0.0
 10
-8.834
 20
21.2953
 30
0.0
 10
-8.834
 20
21.461
 30
0.0
 10
-8.834
 20
21.461
 30
0.0
 10
-8.834
 20
21.6267
 30
0.0
 10
-8.6997
 20
21.761
 30
0.0
 10
-8.534
 20
21.761
 30
0.0
 10
-8.534
 20
21.761
 30
0.0
 10
-8.3683
 20
21.761
 30
0.0
 10
-8.234
 20
21.6267
 30
0.0
 10
-8.234
 20
21.461
 30
0.0
 10
-8.234
 20
21.461
 30
0.0
 10
-8.234
 20
21.2953
 30
0.0
 10
-8.3683
 20
21.161
 30
0.0
 10
-8.534
 20
21.161
 30
0.0
  0
SPLINE
  5
45
330
1F
100
AcDbEntity
  8
Ilustrace
 62
   250
370
    30
100
AcDbSpline
210
0.0
220
0.0
230
1.0
 70
    24
 71
     3
 72
     8
 73
     4
 74
     0
 42
0.0000000001
 43
0.0000000001
 40
0.0
 40
0.0
 40
0.0
 40
0.0
 40
1.0
 40
1.0
 40
1.0
 40
1.0
 10
-8.4278
 20
21.9117
 30
0.0
 10
-8.4278
 20
21.9117
 30
0.0
 10
-8.3659
 20
22.6207
 30
0.0
 10
-8.3659
 20
22.6207
 30
0.0
  0
SPLINE
  5
46
330
1F
100
AcDbEntity
  8
Ilustrace
 62
   250
370
    30
100
AcDbSpline
210
0.0
220
0.0
230
1.0
 70
    24
 71
     3
 72
     8
 73
     4
 74
     0
 42
0.0000000001
 43
0.0000000001
 40
0.0
 40
0.0
 40
0.0
 40
0.0
 40
1.0
 40
1.0
 40
1.0
 40
1.0
 10
-8.7203
 20
22.6207
 30
0.0
 10
-8.7203
 20
22.6207
 30
0.0
 10
-8.7203
 20
23.4005
 30
0.0
 10
-8.7203
 20
23.4005
 30
0.0
  0
SPLINE
  5
47
330
1F
100
AcDbEntity
  8
Ilustrace
 62
   250
370
    30
100
AcDbSpline
210
0.0
220
0.0
230
1.0
 70
    24
 71
     3
 72
     8
 73
     4
 74
     0
 42
0.0000000001
 43
0.0000000001
 40
0.0
 40
0.0
 40
0.0
 40
0.0
 40
1.0
 40
1.0
 40
1.0
 40
1.0
 10
-9.4293
 20
23.4005
 30
0.0
 10
-9.4293
 20
23.4005
 30
0.0
 10
-8.7203
 20
23.4005
 30
0.0
 10
-8.7203
 20
23.4005
 30
0.0
  0
SPLINE
  5
48
330
1F
100
AcDbEntity
  8
Ilustrace
 62
   250
370
    30
100
AcDbSpline
210
0.0
220
0.0
230
1.0
 70
    24
 71
     3
 72
     8
 73
     4
 74
     0
 42
0.0000000001
 43
0.0000000001
 40
0.0
 40
0.0
 40
0.0
 40
0.0
 40
1.0
 40
1.0
 40
1.0
 40
1.0
 10
-9.4293
 20
22.6207
 30
0.0
 10
-9.4293
 20
22.6207
 30
0.0
 10
-9.4293
 20
23.4005
 30
0.0
 10
-9.4293
 20
23.4005
 30
0.0
  0
SPLINE
  5
49
330
1F
100
AcDbEntity
  8
Ilustrace
 62
   250
370
    30
100
AcDbSpline
210
0.0
220
0.0
230
1.0
 70
    24
 71
     3
 72
     8
 73
     4
 74
     0
 42
0.0000000001
 43
0.0000000001
 40
0.0
 40
0.0
 40
0.0
 40
0.0
 40
1.0
 40
1.0
 40
1.0
 40
1.0
 10
-8.3659
 20
22.6207
 30
0.0
 10
-8.3659
 20
22.6207
 30
0.0
 10
-43.6394
 20
22.6207
 30
0.0
 10
-43.6394
 20
22.6207
 30
0.0
  0
SPLINE
  5
4A
330
1F
100
AcDbEntity
  8
Ilustrace
 62
   250
370
    30
100
AcDbSpline
210
0.0
220
0.0
230
1.0
 70
    24
 71
     3
 72
     8
 73
     4
 74
     0
 42
0.0000000001
 43
0.0000000001
 40
0.0
 40
0.0
 40
0.0
 40
0.0
 40
1.0
 40
1.0
 40
1.0
 40
1.0
 10
-43.6394
 20
23.3296
 30
0.0
 10
-43.6394
 20
23.3296
 30
0.0
 10
-43.6394
 20
22.6207
 30
0.0
 10
-43.6394
 20
22.6207
 30
0.0
  0
SPLINE
  5
4B
330
1F
100
AcDbEntity
  8
Ilustrace
 62
   250
370
    30
100
AcDbSpline
210
0.0
220
0.0
230
1.0
 70
    24
 71
     3
 72
     8
 73
     4
 74
     0
 42
0.0000000001
 43
0.0000000001
 40
0.0
 40
0.0
 40
0.0
 40
0.0
 40
1.0
 40
1.0
 40
1.0
 40
1.0
 10
-42.6308
 20
23.3296
 30
0.0
 10
-42.6308
 20
23.3296
 30
0.0
 10
-43.6394
 20
23.3296
 30
0.0
 10
-43.6394
 20
23.3296
 30
0.0
  0
SPLINE
  5
4C
330
1F
100
AcDbEntity
  8
Ilustrace
 62
   250
370
    30
100
AcDbSpline
210
0.0
220
0.0
230
1.0
 70
    24
 71
     3
 72
     8
 73
     4
 74
     0
 42
0.0000000001
 43
0.0000000001
 40
0.0
 40
0.0
 40
0.0
 40
0.0
 40
1.0
 40
1.0
 40
1.0
 40
1.0
 10
-42.2216
 20
22.6207
 30
0.0
 10
-42.2216
 20
22.6207
 30
0.0
 10
-42.6308
 20
23.3296
 30
0.0
 10
-42.6308
 20
23.3296
 30
0.0
  0
SPLINE
  5
4D
330
1F
100
AcDbEntity
  8
Ilustrace
 62
   250
370
    30
100
AcDbSpline
210
0.0
220
0.0
230
1.0
 70
    24
 71
     3
 72
     8
 73
     4
 74
     0
 42
0.0000000001
 43
0.0000000001
 40
0.0
 40
0.0
 40
0.0
 40
0.0
 40
1.0
 40
1.0
 40
1.0
 40
1.0
 10
-43.0456
 20
21.9117
 30
0.0
 10
-43.0456
 20
21.9117
 30
0.0
 10
-8.4278
 20
21.9117
 30
0.0
 10
-8.4278
 20
21.9117
 30
0.0
  0
SPLINE
  5
4E
330
1F
100
AcDbEntity
  8
Ilustrace
 62
   250
370
    30
100
AcDbSpline
210
0.0
220
0.0
230
1.0
 70
    24
 71
     3
 72
     8
 73
     4
 74
     0
 42
0.0000000001
 43
0.0000000001
 40
0.0
 40
0.0
 40
0.0
 40
0.0
 40
1.0
 40
1.0
 40
1.0
 40
1.0
 10
-43.1078
 20
22.6207
 30
0.0
 10
-43.1078
 20
22.6207
 30
0.0
 10
-43.0456
 20
21.9117
 30
0.0
 10
-43.0456
 20
21.9117
 30
0.0
  0
SPLINE
  5
4F
330
1F
100
AcDbEntity
  8
Ilustrace
 62
   250
370
    30
100
AcDbSpline
210
0.0
220
0.0
230
1.0
 70
    24
 71
     3
 72
     8
 73
     4
 74
     0
 42
0.0000000001
 43
0.0000000001
 40
0.0
 40
0.0
 40
0.0
 40
0.0
 40
1.0
 40
1.0
 40
1.0
 40
1.0
 10
-8.6139
 20
19.7845
 30
0.0
 10
-8.6139
 20
19.7845
 30
0.0
 10
-8.5117
 20
20.9545
 30
0.0
 10
-8.5117
 20
20.9545
 30
0.0
  0
SPLINE
  5
50
330
1F
100
AcDbEntity
  8
Ilustrace
 62
   250
370
    30
100
AcDbSpline
210
0.0
220
0.0
230
1.0
 70
    24
 71
     3
 72
     8
 73
     4
 74
     0
 42
0.0000000001
 43
0.0000000001
 40
0.0
 40
0.0
 40
0.0
 40
0.0
 40
1.0
 40
1.0
 40
1.0
 40
1.0
 10
-42.9621
 20
20.9545
 30
0.0
 10
-42.9621
 20
20.9545
 30
0.0
 10
-8.5117
 20
20.9545
 30
0.0
 10
-8.5117
 20
20.9545
 30
0.0
  0
SPLINE
  5
51
330
1F
100
AcDbEntity
  8
Ilustrace
 62
   250
370
    30
100
AcDbSpline
210
0.0
220
0.0
230
1.0
 70
    24
 71
     3
 72
     8
 73
     4
 74
     0
 42
0.0000000001
 43
0.0000000001
 40
0.0
 40
0.0
 40
0.0
 40
0.0
 40
1.0
 40
1.0
 40
1.0
 40
1.0
 10
-42.8595
 20
19.7845
 30
0.0
 10
-42.8595
 20
19.7845
 30
0.0
 10
-42.9621
 20
20.9545
 30
0.0
 10
-42.9621
 20
20.9545
 30
0.0
  0
SPLINE
  5
52
330
1F
100
AcDbEntity
  8
Ilustrace
 62
   250
370
    30
100
AcDbSpline
210
0.0
220
0.0
230
1.0
 70
    24
 71
     3
 72
     8
 73
     4
 74
     0
 42
0.0000000001
 43
0.0000000001
 40
0.0
 40
0.0
 40
0.0
 40
0.0
 40
1.0
 40
1.0
 40
1.0
 40
1.0
 10
-8.6139
 20
19.7845
 30
0.0
 10
-8.6139
 20
19.7845
 30
0.0
 10
-42.8595
 20
19.7845
 30
0.0
 10
-42.8595
 20
19.7845
 30
0.0
  0
SPLINE
  5
53
330
1F
100
AcDbEntity
  8
Ilustrace
 62
   250
370
    30
100
AcDbSpline
210
0.0
220
0.0
230
1.0
 70
    24
 71
     3
 72
     8
 73
     4
 74
     0
 42
0.0000000001
 43
0.0000000001
 40
0.0
 40
0.0
 40
0.0
 40
0.0
 40
1.0
 40
1.0
 40
1.0
 40
1.0
 10
-9.0039
 20
21.9117
 30
0.0
 10
-9.0039
 20
21.9117
 30
0.0
 10
-9.0039
 20
20.9545
 30
0.0
 10
-9.0039
 20
20.9545
 30
0.0
  0
SPLINE
  5
54
330
1F
100
AcDbEntity
  8
Ilustrace
 62
   250
370
    30
100
AcDbSpline
210
0.0
220
0.0
230
1.0
 70
    24
 71
     3
 72
     8
 73
     4
 74
     0
 42
0.0000000001
 43
0.0000000001
 40
0.0
 40
0.0
 40
0.0
 40
0.0
 40
1.0
 40
1.0
 40
1.0
 40
1.0
 10
-27.2885
 20
3.2993
 30
0.0
 10
-27.2885
 20
3.2993
 30
0.0
 10
-27.2885
 20
1.1729
 30
0.0
 10
-27.2885
 20
1.1729
 30
0.0
  0
SPLINE
  5
55
330
1F
100
AcDbEntity
  8
Ilustrace
 62
   250
370
    30
100
AcDbSpline
210
0.0
220
0.0
230
1.0
 70
    24
 71
     3
 72
     8
 73
     4
 74
     0
 42
0.0000000001
 43
0.0000000001
 40
0.0
 40
0.0
 40
0.0
 40
0.0
 40
1.0
 40
1.0
 40
1.0
 40
1.0
 10
-27.9975
 20
1.1729
 30
0.0
 10
-27.9975
 20
1.1729
 30
0.0
 10
-27.2885
 20
1.1729
 30
0.0
 10
-27.2885
 20
1.1729
 30
0.0
  0
SPLINE
  5
56
330
1F
100
AcDbEntity
  8
Ilustrace
 62
   250
370
    30
100
AcDbSpline
210
0.0
220
0.0
230
1.0
 70
    24
 71
     3
 72
     8
 73
     4
 74
     0
 42
0.0000000001
 43
0.0000000001
 40
0.0
 40
0.0
 40
0.0
 40
0.0
 40
1.0
 40
1.0
 40
1.0
 40
1.0
 10
-27.9978
 20
3.2993
 30
0.0
 10
-27.9978
 20
3.2993
 30
0.0
 10
-27.9978
 20
1.1729
 30
0.0
 10
-27.9978
 20
1.1729
 30
0.0
  0
SPLINE
  5
57
330
1F
100
AcDbEntity
  8
Ilustrace
 62
   250
370
    30
100
AcDbSpline
210
0.0
220
0.0
230
1.0
 70
    24
 71
     3
 72
     8
 73
     4
 74
     0
 42
0.0000000001
 43
0.0000000001
 40
0.0
 40
0.0
 40
0.0
 40
0.0
 40
1.0
 40
1.0
 40
1.0
 40
1.0
 10
-27.2885
 20
3.2993
 30
0.0
 10
-27.2885
 20
3.2993
 30
0.0
 10
-27.9978
 20
3.2993
 30
0.0
 10
-27.9978
 20
3.2993
 30
0.0
  0
SPLINE
  5
58
330
1F
100
AcDbEntity
  8
Ilustrace
 62
   250
370
    30
100
AcDbSpline
210
0.0
220
0.0
230
1.0
 70
    24
 71
     3
 72
     8
 73
     4
 74
     0
 42
0.0000000001
 43
0.0000000001
 40
0.0
 40
0.0
 40
0.0
 40
0.0
 40
1.0
 40
1.0
 40
1.0
 40
1.0
 10
-34.137
 20
3.2996
 30
0.0
 10
-34.137
 20
3.2996
 30
0.0
 10
-34.137
 20
1.1729
 30
0.0
 10
-34.137
 20
1.1729
 30
0.0
  0
SPLINE
  5
59
330
1F
100
AcDbEntity
  8
Ilustrace
 62
   250
370
    30
100
AcDbSpline
210
0.0
220
0.0
230
1.0
 70
    24
 71
     3
 72
     8
 73
     4
 74
     0
 42
0.0000000001
 43
0.0000000001
 40
0.0
 40
0.0
 40
0.0
 40
0.0
 40
1.0
 40
1.0
 40
1.0
 40
1.0
 10
-34.8459
 20
1.1729
 30
0.0
 10
-34.8459
 20
1.1729
 30
0.0
 10
-34.137
 20
1.1729
 30
0.0
 10
-34.137
 20
1.1729
 30
0.0
  0
SPLINE
  5
5A
330
1F
100
AcDbEntity
  8
Ilustrace
 62
   250
370
    30
100
AcDbSpline
210
0.0
220
0.0
230
1.0
 70
    24
 71
     3
 72
     8
 73
     4
 74
     0
 42
0.0000000001
 43
0.0000000001
 40
0.0
 40
0.0
 40
0.0
 40
0.0
 40
1.0
 40
1.0
 40
1.0
 40
1.0
 10
-34.8459
 20
3.2996
 30
0.0
 10
-34.8459
 20
3.2996
 30
0.0
 10
-34.8459
 20
1.1729
 30
0.0
 10
-34.8459
 20
1.1729
 30
0.0
  0
SPLINE
  5
5B
330
1F
100
AcDbEntity
  8
Ilustrace
 62
   250
370
    30
100
AcDbSpline
210
0.0
220
0.0
230
1.0
 70
    24
 71
     3
 72
     8
 73
     4
 74
     0
 42
0.0000000001
 43
0.0000000001
 40
0.0
 40
0.0
 40
0.0
 40
0.0
 40
1.0
 40
1.0
 40
1.0
 40
1.0
 10
-42.4696
 20
21.9117
 30
0.0
 10
-42.4696
 20
21.9117
 30
0.0
 10
-42.4696
 20
20.9545
 30
0.0
 10
-42.4696
 20
20.9545
 30
0.0
  0
SPLINE
  5
5C
330
1F
100
AcDbEntity
  8
Ilustrace
 62
   250
370
    30
100
AcDbSpline
210
0.0
220
0.0
230
1.0
 70
     8
 71
     3
 72
    12
 73
     8
 74
     0
 42
0.0000000001
 43
0.0000000001
 40
0.0
 40
0.0
 40
0.0
 40
0.0
 40
0.3333333333333333
 40
0.3333333333333333
 40
0.3333333333333333
 40
0.3333333333333333
 40
1.0
 40
1.0
 40
1.0
 40
1.0
 10
-9.7131
 20
22.6207
 30
0.0
 10
-10.0925
 20
23.0079
 30
0.0
 10
-10.4749
 20
23.3748
 30
0.0
 10
-10.911
 20
23.6998
 30
0.0
 10
-10.911
 20
23.6998
 30
0.0
 10
-11.9888
 20
24.5025
 30
0.0
 10
-13.242
 20
25.0408
 30
0.0
 10
-14.5618
 20
25.2783
 30
0.0
  0
SPLINE
  5
5D
330
1F
100
AcDbEntity
  8
Ilustrace
 62
   250
370
    30
100
AcDbSpline
210
0.0
220
0.0
230
1.0
 70
     8
 71
     3
 72
     8
 73
     4
 74
     0
 42
0.0000000001
 43
0.0000000001
 40
0.0
 40
0.0
 40
0.0
 40
0.0
 40
1.0
 40
1.0
 40
1.0
 40
1.0
 10
-14.4372
 20
25.2567
 30
0.0
 10
-16.4368
 20
25.6153
 30
0.0
 10
-18.4626
 20
25.3352
 30
0.0
 10
-20.2598
 20
24.354
 30
0.0
  0
SPLINE
  5
5E
330
1F
100
AcDbEntity
  8
Ilustrace
 62
   250
370
    30
100
AcDbSpline
210
0.0
220
0.0
230
1.0
 70
     8
 71
     3
 72
     8
 73
     4
 74
     0
 42
0.0000000001
 43
0.0000000001
 40
0.0
 40
0.0
 40
0.0
 40
0.0
 40
1.0
 40
1.0
 40
1.0
 40
1.0
 10
-21.4972
 20
23.5358
 30
0.0
 10
-21.8472
 20
23.2502
 30
0.0
 10
-22.1697
 20
22.9479
 30
0.0
 10
-22.4824
 20
22.6207
 30
0.0
  0
SPLINE
  5
5F
330
1F
100
AcDbEntity
  8
Ilustrace
 62
   250
370
    30
100
AcDbSpline
210
0.0
220
0.0
230
1.0
 70
     8
 71
     3
 72
     8
 73
     4
 74
     0
 42
0.0000000001
 43
0.0000000001
 40
0.0
 40
0.0
 40
0.0
 40
0.0
 40
1.0
 40
1.0
 40
1.0
 40
1.0
 10
-21.5894
 20
23.4594
 30
0.0
 10
-21.1692
 20
23.8026
 30
0.0
 10
-20.7231
 20
24.1006
 30
0.0
 10
-20.2481
 20
24.3621
 30
0.0
  0
SPLINE
  5
60
330
1F
100
AcDbEntity
  8
Ilustrace
 62
   250
370
    30
100
AcDbSpline
210
0.0
220
0.0
230
1.0
 70
     8
 71
     3
 72
     8
 73
     4
 74
     0
 42
0.0000000001
 43
0.0000000001
 40
0.0
 40
0.0
 40
0.0
 40
0.0
 40
1.0
 40
1.0
 40
1.0
 40
1.0
 10
-19.0776
 20
19.5234
 30
0.0
 10
-18.4394
 20
19.6782
 30
0.0
 10
-17.8273
 20
19.7623
 30
0.0
 10
-17.1708
 20
19.7845
 30
0.0
  0
SPLINE
  5
61
330
1F
100
AcDbEntity
  8
Ilustrace
 62
   250
370
    30
100
AcDbSpline
210
0.0
220
0.0
230
1.0
 70
     8
 71
     3
 72
    16
 73
    12
 74
     0
 42
0.0000000001
 43
0.0000000001
 40
0.0
 40
0.0
 40
0.0
 40
0.0
 40
0.25
 40
0.25
 40
0.25
 40
0.25
 40
0.5
 40
0.5
 40
0.5
 40
0.5
 40
1.0
 40
1.0
 40
1.0
 40
1.0
 10
-18.9534
 20
19.5625
 30
0.0
 10
-19.4651
 20
19.4007
 30
0.0
 10
-19.9559
 20
19.2368
 30
0.0
 10
-20.4337
 20
18.9891
 30
0.0
 10
-20.4337
 20
18.9891
 30
0.0
 10
-21.9848
 20
18.1851
 30
0.0
 10
-23.2026
 20
16.8094
 30
0.0
 10
-23.8136
 20
15.1728
 30
0.0
 10
-23.8136
 20
15.1728
 30
0.0
 10
-24.1104
 20
14.3784
 30
0.0
 10
-24.208
 20
13.5694
 30
0.0
 10
-24.2963
 20
12.7316
 30
0.0
  0
SPLINE
  5
62
330
1F
100
AcDbEntity
  8
Ilustrace
 62
   250
370
    30
100
AcDbSpline
210
0.0
220
0.0
230
1.0
 70
     8
 71
     3
 72
    12
 73
     8
 74
     0
 42
0.0000000001
 43
0.0000000001
 40
0.0
 40
0.0
 40
0.0
 40
0.0
 40
0.3333333333333333
 40
0.3333333333333333
 40
0.3333333333333333
 40
0.3333333333333333
 40
1.0
 40
1.0
 40
1.0
 40
1.0
 10
-24.2963
 20
12.7316
 30
0.0
 10
-24.2963
 20
12.7316
 30
0.0
 10
-25.4388
 20
1.8779
 30
0.0
 10
-25.4388
 20
1.8779
 30
0.0
 10
-25.4388
 20
1.8779
 30
0.0
 10
-25.4388
 20
1.8779
 30
0.0
 10
-25.513
 20
1.1729
 30
0.0
 10
-25.513
 20
1.1729
 30
0.0
  0
SPLINE
  5
63
330
1F
100
AcDbEntity
  8
Ilustrace
 62
   250
370
    30
100
AcDbSpline
210
0.0
220
0.0
230
1.0
 70
    11
 71
     3
 72
    28
 73
    24
 74
     0
 42
0.0000000001
 43
0.0000000001
 40
0.0
 40
0.0
 40
0.0
 40
0.0
 40
0.1428571428571428
 40
0.1428571428571428
 40
0.1428571428571428
 40
0.1428571428571428
 40
0.2857142857142857
 40
0.2857142857142857
 40
0.2857142857142857
 40
0.2857142857142857
 40
0.4285714285714285
 40
0.4285714285714285
 40
0.4285714285714285
 40
0.4285714285714285
 40
0.5714285714285714
 40
0.5714285714285714
 40
0.5714285714285714
 40
0.5714285714285714
 40
0.7142857142857143
 40
0.7142857142857143
 40
0.7142857142857143
 40
0.7142857142857143
 40
1.0
 40
1.0
 40
1.0
 40
1.0
 10
-38.4321
 20
2.9058
 30
0.0
 10
-38.4321
 20
3.2274
 30
0.0
 10
-38.2226
 20
3.4532
 30
0.0
 10
-37.9018
 20
3.477
 30
0.0
 10
-37.9018
 20
3.477
 30
0.0
 10
-37.7924
 20
3.4689
 30
0.0
 10
-37.6944
 20
3.4478
 30
0.0
 10
-37.6021
 20
3.3846
 30
0.0
 10
-37.6021
 20
3.3846
 30
0.0
 10
-37.5362
 20
3.3398
 30
0.0
 10
-37.481
 20
3.2803
 30
0.0
 10
-37.4412
 20
3.2112
 30
0.0
 10
-37.4412
 20
3.2112
 30
0.0
 10
-37.1857
 20
2.7684
 30
0.0
 10
-37.6718
 20
2.2444
 30
0.0
 10
-38.1324
 20
2.4663
 30
0.0
 10
-38.1324
 20
2.4663
 30
0.0
 10
-38.2042
 20
2.5008
 30
0.0
 10
-38.2677
 20
2.5516
 30
0.0
 10
-38.3175
 20
2.6138
 30
0.0
 10
-38.3175
 20
2.6138
 30
0.0
 10
-38.387
 20
2.7013
 30
0.0
 10
-38.4155
 20
2.7972
 30
0.0
 10
-38.4321
 20
2.9058
 30
0.0
  0
SPLINE
  5
64
330
1F
100
AcDbEntity
  8
Ilustrace
 62
   250
370
    30
100
AcDbSpline
210
0.0
220
0.0
230
1.0
 70
     8
 71
     3
 72
     8
 73
     4
 74
     0
 42
0.0000000001
 43
0.0000000001
 40
0.0
 40
0.0
 40
0.0
 40
0.0
 40
1.0
 40
1.0
 40
1.0
 40
1.0
 10
-41.6458
 20
19.7845
 30
0.0
 10
-41.5723
 20
19.423
 30
0.0
 10
-41.5226
 20
19.0978
 30
0.0
 10
-41.2386
 20
18.8403
 30
0.0
  0
SPLINE
  5
65
330
1F
100
AcDbEntity
  8
Ilustrace
 62
   250
370
    30
100
AcDbSpline
210
0.0
220
0.0
230
1.0
 70
     8
 71
     3
 72
    16
 73
    12
 74
     0
 42
0.0000000001
 43
0.0000000001
 40
0.0
 40
0.0
 40
0.0
 40
0.0
 40
0.25
 40
0.25
 40
0.25
 40
0.25
 40
0.5
 40
0.5
 40
0.5
 40
0.5
 40
1.0
 40
1.0
 40
1.0
 40
1.0
 10
-41.2386
 20
18.8403
 30
0.0
 10
-41.2386
 20
18.8403
 30
0.0
 10
-40.7101
 20
18.3678
 30
0.0
 10
-40.7101
 20
18.3678
 30
0.0
 10
-40.7101
 20
18.3678
 30
0.0
 10
-40.7101
 20
18.3678
 30
0.0
 10
-40.5868
 20
18.2574
 30
0.0
 10
-40.5868
 20
18.2574
 30
0.0
 10
-40.5868
 20
18.2574
 30
0.0
 10
-40.5868
 20
18.2574
 30
0.0
 10
-40.0582
 20
17.7848
 30
0.0
 10
-40.0582
 20
17.7848
 30
0.0
  0
SPLINE
  5
66
330
1F
100
AcDbEntity
  8
Ilustrace
 62
   250
370
    30
100
AcDbSpline
210
0.0
220
0.0
230
1.0
 70
     8
 71
     3
 72
     8
 73
     4
 74
     0
 42
0.0000000001
 43
0.0000000001
 40
0.0
 40
0.0
 40
0.0
 40
0.0
 40
1.0
 40
1.0
 40
1.0
 40
1.0
 10
-40.0582
 20
17.7848
 30
0.0
 10
-40.0068
 20
17.7384
 30
0.0
 10
-39.9696
 20
17.6781
 30
0.0
 10
-39.9518
 20
17.6109
 30
0.0
  0
SPLINE
  5
67
330
1F
100
AcDbEntity
  8
Ilustrace
 62
   250
370
    30
100
AcDbSpline
210
0.0
220
0.0
230
1.0
 70
     8
 71
     3
 72
    20
 73
    16
 74
     0
 42
0.0000000001
 43
0.0000000001
 40
0.0
 40
0.0
 40
0.0
 40
0.0
 40
0.2
 40
0.2
 40
0.2
 40
0.2
 40
0.4
 40
0.4
 40
0.4
 40
0.4
 40
0.6
 40
0.6
 40
0.6
 40
0.6
 40
1.0
 40
1.0
 40
1.0
 40
1.0
 10
-39.9518
 20
17.6109
 30
0.0
 10
-39.9518
 20
17.6109
 30
0.0
 10
-39.9425
 20
17.5608
 30
0.0
 10
-39.9425
 20
17.5608
 30
0.0
 10
-39.9425
 20
17.5608
 30
0.0
 10
-39.9425
 20
17.5608
 30
0.0
 10
-39.8632
 20
16.8563
 30
0.0
 10
-39.8632
 20
16.8563
 30
0.0
 10
-39.8632
 20
16.8563
 30
0.0
 10
-39.8632
 20
16.8563
 30
0.0
 10
-38.5072
 20
4.8037
 30
0.0
 10
-38.5072
 20
4.8037
 30
0.0
 10
-38.5072
 20
4.8037
 30
0.0
 10
-38.5072
 20
4.8037
 30
0.0
 10
-38.4279
 20
4.0992
 30
0.0
 10
-38.4279
 20
4.0992
 30
0.0
  0
SPLINE
  5
68
330
1F
100
AcDbEntity
  8
Ilustrace
 62
   250
370
    30
100
AcDbSpline
210
0.0
220
0.0
230
1.0
 70
    24
 71
     3
 72
     8
 73
     4
 74
     0
 42
0.0000000001
 43
0.0000000001
 40
0.0
 40
0.0
 40
0.0
 40
0.0
 40
1.0
 40
1.0
 40
1.0
 40
1.0
 10
-27.2885
 20
1.1729
 30
0.0
 10
-27.2885
 20
1.1729
 30
0.0
 10
-25.1746
 20
1.1729
 30
0.0
 10
-25.1746
 20
1.1729
 30
0.0
  0
SPLINE
  5
69
330
1F
100
AcDbEntity
  8
Ilustrace
 62
   250
370
    30
100
AcDbSpline
210
0.0
220
0.0
230
1.0
 70
    24
 71
     3
 72
     8
 73
     4
 74
     0
 42
0.0000000001
 43
0.0000000001
 40
0.0
 40
0.0
 40
0.0
 40
0.0
 40
1.0
 40
1.0
 40
1.0
 40
1.0
 10
-41.6856
 20
1.1729
 30
0.0
 10
-41.6856
 20
1.1729
 30
0.0
 10
-42.2141
 20
1.1729
 30
0.0
 10
-42.2141
 20
1.1729
 30
0.0
  0
SPLINE
  5
6A
330
1F
100
AcDbEntity
  8
Ilustrace
 62
   250
370
    30
100
AcDbSpline
210
0.0
220
0.0
230
1.0
 70
    24
 71
     3
 72
     8
 73
     4
 74
     0
 42
0.0000000001
 43
0.0000000001
 40
0.0
 40
0.0
 40
0.0
 40
0.0
 40
1.0
 40
1.0
 40
1.0
 40
1.0
 10
-34.137
 20
1.1729
 30
0.0
 10
-34.137
 20
1.1729
 30
0.0
 10
-27.9975
 20
1.1729
 30
0.0
 10
-27.9975
 20
1.1729
 30
0.0
  0
SPLINE
  5
6B
330
1F
100
AcDbEntity
  8
Ilustrace
 62
   250
370
    30
100
AcDbSpline
210
0.0
220
0.0
230
1.0
 70
    24
 71
     3
 72
     8
 73
     4
 74
     0
 42
0.0000000001
 43
0.0000000001
 40
0.0
 40
0.0
 40
0.0
 40
0.0
 40
1.0
 40
1.0
 40
1.0
 40
1.0
 10
-37.37
 20
1.1729
 30
0.0
 10
-37.37
 20
1.1729
 30
0.0
 10
-34.8459
 20
1.1729
 30
0.0
 10
-34.8459
 20
1.1729
 30
0.0
  0
SPLINE
  5
6C
330
1F
100
AcDbEntity
  8
Ilustrace
 62
   250
370
    30
100
AcDbSpline
210
0.0
220
0.0
230
1.0
 70
    24
 71
     3
 72
     8
 73
     4
 74
     0
 42
0.0000000001
 43
0.0000000001
 40
0.0
 40
0.0
 40
0.0
 40
0.0
 40
1.0
 40
1.0
 40
1.0
 40
1.0
 10
-37.37
 20
2.0592
 30
0.0
 10
-37.37
 20
2.0592
 30
0.0
 10
-37.37
 20
1.1729
 30
0.0
 10
-37.37
 20
1.1729
 30
0.0
  0
SPLINE
  5
6D
330
1F
100
AcDbEntity
  8
Ilustrace
 62
   250
370
    30
100
AcDbSpline
210
0.0
220
0.0
230
1.0
 70
    24
 71
     3
 72
     8
 73
     4
 74
     0
 42
0.0000000001
 43
0.0000000001
 40
0.0
 40
0.0
 40
0.0
 40
0.0
 40
1.0
 40
1.0
 40
1.0
 40
1.0
 10
-37.9018
 20
2.0592
 30
0.0
 10
-37.9018
 20
2.0592
 30
0.0
 10
-37.37
 20
2.0592
 30
0.0
 10
-37.37
 20
2.0592
 30
0.0
  0
SPLINE
  5
6E
330
1F
100
AcDbEntity
  8
Ilustrace
 62
   250
370
    30
100
AcDbSpline
210
0.0
220
0.0
230
1.0
 70
    24
 71
     3
 72
     8
 73
     4
 74
     0
 42
0.0000000001
 43
0.0000000001
 40
0.0
 40
0.0
 40
0.0
 40
0.0
 40
1.0
 40
1.0
 40
1.0
 40
1.0
 10
-37.9018
 20
2.0592
 30
0.0
 10
-37.9018
 20
2.0592
 30
0.0
 10
-37.9018
 20
1.1729
 30
0.0
 10
-37.9018
 20
1.1729
 30
0.0
  0
SPLINE
  5
6F
330
1F
100
AcDbEntity
  8
Ilustrace
 62
   250
370
    30
100
AcDbSpline
210
0.0
220
0.0
230
1.0
 70
    24
 71
     3
 72
     8
 73
     4
 74
     0
 42
0.0000000001
 43
0.0000000001
 40
0.0
 40
0.0
 40
0.0
 40
0.0
 40
1.0
 40
1.0
 40
1.0
 40
1.0
 10
-39.3106
 20
1.1729
 30
0.0
 10
-39.3106
 20
1.1729
 30
0.0
 10
-37.9018
 20
1.1729
 30
0.0
 10
-37.9018
 20
1.1729
 30
0.0
  0
SPLINE
  5
70
330
1F
100
AcDbEntity
  8
Ilustrace
 62
   250
370
    30
100
AcDbSpline
210
0.0
220
0.0
230
1.0
 70
    24
 71
     3
 72
     8
 73
     4
 74
     0
 42
0.0000000001
 43
0.0000000001
 40
0.0
 40
0.0
 40
0.0
 40
0.0
 40
1.0
 40
1.0
 40
1.0
 40
1.0
 10
-38.7809
 20
1.7185
 30
0.0
 10
-38.7809
 20
1.7185
 30
0.0
 10
-38.6847
 20
1.1729
 30
0.0
 10
-38.6847
 20
1.1729
 30
0.0
  0
SPLINE
  5
71
330
1F
100
AcDbEntity
  8
Ilustrace
 62
   250
370
    30
100
AcDbSpline
210
0.0
220
0.0
230
1.0
 70
     8
 71
     3
 72
    12
 73
     8
 74
     0
 42
0.0000000001
 43
0.0000000001
 40
0.0
 40
0.0
 40
0.0
 40
0.0
 40
0.3333333333333333
 40
0.3333333333333333
 40
0.3333333333333333
 40
0.3333333333333333
 40
1.0
 40
1.0
 40
1.0
 40
1.0
 10
-42.2141
 20
1.1729
 30
0.0
 10
-42.2101
 20
0.9339
 30
0.0
 10
-42.2652
 20
0.6036
 30
0.0
 10
-41.9877
 20
0.4902
 30
0.0
 10
-41.9877
 20
0.4902
 30
0.0
 10
-41.9306
 20
0.4668
 30
0.0
 10
-41.9141
 20
0.4698
 30
0.0
 10
-41.8534
 20
0.4637
 30
0.0
  0
SPLINE
  5
72
330
1F
100
AcDbEntity
  8
Ilustrace
 62
   250
370
    30
100
AcDbSpline
210
0.0
220
0.0
230
1.0
 70
    24
 71
     3
 72
    12
 73
     8
 74
     0
 42
0.0000000001
 43
0.0000000001
 40
0.0
 40
0.0
 40
0.0
 40
0.0
 40
0.3333333333333333
 40
0.3333333333333333
 40
0.3333333333333333
 40
0.3333333333333333
 40
1.0
 40
1.0
 40
1.0
 40
1.0
 10
-41.8534
 20
0.4637
 30
0.0
 10
-41.8534
 20
0.4637
 30
0.0
 10
-41.1444
 20
0.4637
 30
0.0
 10
-41.1444
 20
0.4637
 30
0.0
 10
-41.1444
 20
0.4637
 30
0.0
 10
-41.1444
 20
0.4637
 30
0.0
 10
-26.2445
 20
0.4637
 30
0.0
 10
-26.2445
 20
0.4637
 30
0.0
  0
SPLINE
  5
73
330
1F
100
AcDbEntity
  8
Ilustrace
 62
   250
370
    30
100
AcDbSpline
210
0.0
220
0.0
230
1.0
 70
     8
 71
     3
 72
     8
 73
     4
 74
     0
 42
0.0000000001
 43
0.0000000001
 40
0.0
 40
0.0
 40
0.0
 40
0.0
 40
1.0
 40
1.0
 40
1.0
 40
1.0
 10
-26.2445
 20
0.4637
 30
0.0
 10
-25.9857
 20
0.4637
 30
0.0
 10
-25.1978
 20
0.3025
 30
0.0
 10
-25.1809
 20
0.8122
 30
0.0
  0
SPLINE
  5
74
330
1F
100
AcDbEntity
  8
Ilustrace
 62
   250
370
    30
100
AcDbSpline
210
0.0
220
0.0
230
1.0
 70
    24
 71
     3
 72
     8
 73
     4
 74
     0
 42
0.0000000001
 43
0.0000000001
 40
0.0
 40
0.0
 40
0.0
 40
0.0
 40
1.0
 40
1.0
 40
1.0
 40
1.0
 10
-25.1809
 20
0.8122
 30
0.0
 10
-25.1809
 20
0.8122
 30
0.0
 10
-25.1746
 20
1.1729
 30
0.0
 10
-25.1746
 20
1.1729
 30
0.0
  0
SPLINE
  5
75
330
1F
100
AcDbEntity
  8
Ilustrace
 62
   250
370
    30
100
AcDbSpline
210
0.0
220
0.0
230
1.0
 70
     8
 71
     3
 72
    12
 73
     8
 74
     0
 42
0.0000000001
 43
0.0000000001
 40
0.0
 40
0.0
 40
0.0
 40
0.0
 40
0.3333333333333333
 40
0.3333333333333333
 40
0.3333333333333333
 40
0.3333333333333333
 40
1.0
 40
1.0
 40
1.0
 40
1.0
 10
-31.2527
 20
-0.6095
 30
0.0
 10
-30.2838
 20
-0.4992
 30
0.0
 10
-29.3598
 20
-0.1123
 30
0.0
 10
-28.4445
 20
0.1983
 30
0.0
 10
-28.4445
 20
0.1983
 30
0.0
 10
-28.1333
 20
0.3038
 30
0.0
 10
-27.8633
 20
0.4376
 30
0.0
 10
-27.5451
 20
0.4637
 30
0.0
  0
SPLINE
  5
76
330
1F
100
AcDbEntity
  8
Ilustrace
 62
   250
370
    30
100
AcDbSpline
210
0.0
220
0.0
230
1.0
 70
     8
 71
     3
 72
    12
 73
     8
 74
     0
 42
0.0000000001
 43
0.0000000001
 40
0.0
 40
0.0
 40
0.0
 40
0.0
 40
0.3333333333333333
 40
0.3333333333333333
 40
0.3333333333333333
 40
0.3333333333333333
 40
1.0
 40
1.0
 40
1.0
 40
1.0
 10
-33.7723
 20
-0.4874
 30
0.0
 10
-33.2237
 20
-0.6002
 30
0.0
 10
-32.6883
 20
-0.6603
 30
0.0
 10
-32.1285
 20
-0.6699
 30
0.0
 10
-32.1285
 20
-0.6699
 30
0.0
 10
-31.6499
 20
-0.6549
 30
0.0
 10
-31.1911
 20
-0.6086
 30
0.0
 10
-30.7215
 20
-0.5185
 30
0.0
  0
SPLINE
  5
77
330
1F
100
AcDbEntity
  8
Ilustrace
 62
   250
370
    30
100
AcDbSpline
210
0.0
220
0.0
230
1.0
 70
     8
 71
     3
 72
    12
 73
     8
 74
     0
 42
0.0000000001
 43
0.0000000001
 40
0.0
 40
0.0
 40
0.0
 40
0.0
 40
0.3333333333333333
 40
0.3333333333333333
 40
0.3333333333333333
 40
0.3333333333333333
 40
1.0
 40
1.0
 40
1.0
 40
1.0
 10
-33.4301
 20
-0.5578
 30
0.0
 10
-34.0378
 20
-0.4328
 30
0.0
 10
-34.6107
 20
-0.2581
 30
0.0
 10
-35.1756
 20
-0.0032
 30
0.0
 10
-35.1756
 20
-0.0032
 30
0.0
 10
-35.5215
 20
0.1528
 30
0.0
 10
-35.8358
 20
0.4372
 30
0.0
 10
-36.2234
 20
0.4637
 30
0.0
  0
SPLINE
  5
78
330
1F
100
AcDbEntity
  8
Ilustrace
 62
   250
370
    30
100
AcDbSpline
210
0.0
220
0.0
230
1.0
 70
     8
 71
     3
 72
    12
 73
     8
 74
     0
 42
0.0000000001
 43
0.0000000001
 40
0.0
 40
0.0
 40
0.0
 40
0.0
 40
0.3333333333333333
 40
0.3333333333333333
 40
0.3333333333333333
 40
0.3333333333333333
 40
1.0
 40
1.0
 40
1.0
 40
1.0
 10
-37.3604
 20
4.0572
 30
0.0
 10
-37.254
 20
3.9788
 30
0.0
 10
-37.2221
 20
3.964
 30
0.0
 10
-37.1331
 20
3.8645
 30
0.0
 10
-37.1331
 20
3.8645
 30
0.0
 10
-36.8357
 20
3.5317
 30
0.0
 10
-36.825
 20
3.0488
 30
0.0
 10
-36.7518
 20
2.6352
 30
0.0
  0
SPLINE
  5
79
330
1F
100
AcDbEntity
  8
Ilustrace
 62
   250
370
    30
100
AcDbSpline
210
0.0
220
0.0
230
1.0
 70
     8
 71
     3
 72
    12
 73
     8
 74
     0
 42
0.0000000001
 43
0.0000000001
 40
0.0
 40
0.0
 40
0.0
 40
0.0
 40
0.3333333333333333
 40
0.3333333333333333
 40
0.3333333333333333
 40
0.3333333333333333
 40
1.0
 40
1.0
 40
1.0
 40
1.0
 10
-36.7518
 20
2.6352
 30
0.0
 10
-36.7518
 20
2.6352
 30
0.0
 10
-36.6169
 20
1.871
 30
0.0
 10
-36.6169
 20
1.871
 30
0.0
 10
-36.6169
 20
1.871
 30
0.0
 10
-36.6169
 20
1.871
 30
0.0
 10
-36.4936
 20
1.1729
 30
0.0
 10
-36.4936
 20
1.1729
 30
0.0
  0
SPLINE
  5
7A
330
1F
100
AcDbEntity
  8
Ilustrace
 62
   250
370
    30
100
AcDbSpline
210
0.0
220
0.0
230
1.0
 70
     8
 71
     3
 72
     8
 73
     4
 74
     0
 42
0.0000000001
 43
0.0000000001
 40
0.0
 40
0.0
 40
0.0
 40
0.0
 40
1.0
 40
1.0
 40
1.0
 40
1.0
 10
-37.3604
 20
4.0515
 30
0.0
 10
-37.7221
 20
4.2469
 30
0.0
 10
-38.0686
 20
4.2598
 30
0.0
 10
-38.4436
 20
4.0921
 30
0.0
  0
SPLINE
  5
7B
330
1F
100
AcDbEntity
  8
Ilustrace
 62
   250
370
    30
100
AcDbSpline
210
0.0
220
0.0
230
1.0
 70
     8
 71
     3
 72
     8
 73
     4
 74
     0
 42
0.0000000001
 43
0.0000000001
 40
0.0
 40
0.0
 40
0.0
 40
0.0
 40
1.0
 40
1.0
 40
1.0
 40
1.0
 10
-38.4436
 20
4.0978
 30
0.0
 10
-38.8034
 20
3.873
 30
0.0
 10
-39.0565
 20
3.5049
 30
0.0
 10
-39.01
 20
3.0627
 30
0.0
  0
SPLINE
  5
7C
330
1F
100
AcDbEntity
  8
Ilustrace
 62
   250
370
    30
100
AcDbSpline
210
0.0
220
0.0
230
1.0
 70
    11
 71
     3
 72
    32
 73
    28
 74
     0
 42
0.0000000001
 43
0.0000000001
 40
0.0
 40
0.0
 40
0.0
 40
0.0
 40
0.125
 40
0.125
 40
0.125
 40
0.125
 40
0.25
 40
0.25
 40
0.25
 40
0.25
 40
0.375
 40
0.375
 40
0.375
 40
0.375
 40
0.5
 40
0.5
 40
0.5
 40
0.5
 40
0.625
 40
0.625
 40
0.625
 40
0.625
 40
0.75
 40
0.75
 40
0.75
 40
0.75
 40
1.0
 40
1.0
 40
1.0
 40
1.0
 10
-38.4718
 20
2.9454
 30
0.0
 10
-38.4429
 20
3.2762
 30
0.0
 10
-38.2324
 20
3.4865
 30
0.0
 10
-37.9018
 20
3.5154
 30
0.0
 10
-37.9018
 20
3.5154
 30
0.0
 10
-37.7983
 20
3.5064
 30
0.0
 10
-37.7084
 20
3.492
 30
0.0
 10
-37.6168
 20
3.4391
 30
0.0
 10
-37.6168
 20
3.4391
 30
0.0
 10
-37.5591
 20
3.406
 30
0.0
 10
-37.5077
 20
3.3627
 30
0.0
 10
-37.4649
 20
3.3119
 30
0.0
 10
-37.4649
 20
3.3119
 30
0.0
 10
-37.1304
 20
2.913
 30
0.0
 10
-37.4882
 20
2.2939
 30
0.0
 10
-38.0007
 20
2.3841
 30
0.0
 10
-38.0007
 20
2.3841
 30
0.0
 10
-38.0662
 20
2.3959
 30
0.0
 10
-38.129
 20
2.4185
 30
0.0
 10
-38.1868
 20
2.4518
 30
0.0
 10
-38.1868
 20
2.4518
 30
0.0
 10
-38.2731
 20
2.5016
 30
0.0
 10
-38.3455
 20
2.5742
 30
0.0
 10
-38.3952
 20
2.6605
 30
0.0
 10
-38.3952
 20
2.6605
 30
0.0
 10
-38.4483
 20
2.7519
 30
0.0
 10
-38.4626
 20
2.8421
 30
0.0
 10
-38.4718
 20
2.9454
 30
0.0
  0
SPLINE
  5
7D
330
1F
100
AcDbEntity
  8
Ilustrace
 62
   250
370
    30
100
AcDbSpline
210
0.0
220
0.0
230
1.0
 70
     8
 71
     3
 72
    16
 73
    12
 74
     0
 42
0.0000000001
 43
0.0000000001
 40
0.0
 40
0.0
 40
0.0
 40
0.0
 40
0.25
 40
0.25
 40
0.25
 40
0.25
 40
0.5
 40
0.5
 40
0.5
 40
0.5
 40
1.0
 40
1.0
 40
1.0
 40
1.0
 10
-39.0886
 20
3.4818
 30
0.0
 10
-39.0009
 20
3.1616
 30
0.0
 10
-38.9678
 20
2.8233
 30
0.0
 10
-38.9101
 20
2.4952
 30
0.0
 10
-38.9101
 20
2.4952
 30
0.0
 10
-38.8524
 20
2.1686
 30
0.0
 10
-38.6333
 20
1.6324
 30
0.0
 10
-38.9331
 20
1.3301
 30
0.0
 10
-38.9331
 20
1.3301
 30
0.0
 10
-39.197
 20
1.0641
 30
0.0
 10
-39.7288
 20
1.1729
 30
0.0
 10
-40.0195
 20
1.1729
 30
0.0
  0
SPLINE
  5
7E
330
1F
100
AcDbEntity
  8
Ilustrace
 62
   250
370
    30
100
AcDbSpline
210
0.0
220
0.0
230
1.0
 70
    24
 71
     3
 72
     8
 73
     4
 74
     0
 42
0.0000000001
 43
0.0000000001
 40
0.0
 40
0.0
 40
0.0
 40
0.0
 40
1.0
 40
1.0
 40
1.0
 40
1.0
 10
-40.0195
 20
1.1729
 30
0.0
 10
-40.0195
 20
1.1729
 30
0.0
 10
-40.9766
 20
1.1729
 30
0.0
 10
-40.9766
 20
1.1729
 30
0.0
  0
SPLINE
  5
7F
330
1F
100
AcDbEntity
  8
Ilustrace
 62
   250
370
    30
100
AcDbSpline
210
0.0
220
0.0
230
1.0
 70
     8
 71
     3
 72
    12
 73
     8
 74
     0
 42
0.0000000001
 43
0.0000000001
 40
0.0
 40
0.0
 40
0.0
 40
0.0
 40
0.3333333333333333
 40
0.3333333333333333
 40
0.3333333333333333
 40
0.3333333333333333
 40
1.0
 40
1.0
 40
1.0
 40
1.0
 10
-40.9766
 20
1.1729
 30
0.0
 10
-41.3509
 20
1.1729
 30
0.0
 10
-42.0036
 20
1.0355
 30
0.0
 10
-42.1831
 20
1.5169
 30
0.0
 10
-42.1831
 20
1.5169
 30
0.0
 10
-42.2141
 20
1.6001
 30
0.0
 10
-42.2098
 20
1.6212
 30
0.0
 10
-42.2173
 20
1.7092
 30
0.0
  0
SPLINE
  5
80
330
1F
100
AcDbEntity
  8
Ilustrace
 62
   250
370
    30
100
AcDbSpline
210
0.0
220
0.0
230
1.0
 70
     8
 71
     3
 72
    16
 73
    12
 74
     0
 42
0.0000000001
 43
0.0000000001
 40
0.0
 40
0.0
 40
0.0
 40
0.0
 40
0.25
 40
0.25
 40
0.25
 40
0.25
 40
0.5
 40
0.5
 40
0.5
 40
0.5
 40
1.0
 40
1.0
 40
1.0
 40
1.0
 10
-41.0166
 20
6.6369
 30
0.0
 10
-41.2259
 20
6.6923
 30
0.0
 10
-41.4231
 20
6.6715
 30
0.0
 10
-41.6468
 20
6.6676
 30
0.0
 10
-41.6468
 20
6.6676
 30
0.0
 10
-41.719
 20
6.6664
 30
0.0
 10
-41.7706
 20
6.6568
 30
0.0
 10
-41.838
 20
6.6321
 30
0.0
 10
-41.838
 20
6.6321
 30
0.0
 10
-42.3121
 20
6.4589
 30
0.0
 10
-42.1816
 20
5.7912
 30
0.0
 10
-42.1847
 20
5.4316
 30
0.0
  0
SPLINE
  5
81
330
1F
100
AcDbEntity
  8
Ilustrace
 62
   250
370
    30
100
AcDbSpline
210
0.0
220
0.0
230
1.0
 70
     8
 71
     3
 72
    16
 73
    12
 74
     0
 42
0.0000000001
 43
0.0000000001
 40
0.0
 40
0.0
 40
0.0
 40
0.0
 40
0.25
 40
0.25
 40
0.25
 40
0.25
 40
0.5
 40
0.5
 40
0.5
 40
0.5
 40
1.0
 40
1.0
 40
1.0
 40
1.0
 10
-42.1847
 20
5.4316
 30
0.0
 10
-42.1847
 20
5.4316
 30
0.0
 10
-42.2111
 20
2.4181
 30
0.0
 10
-42.2111
 20
2.4181
 30
0.0
 10
-42.2111
 20
2.4181
 30
0.0
 10
-42.2111
 20
2.4181
 30
0.0
 10
-42.2173
 20
1.7092
 30
0.0
 10
-42.2173
 20
1.7092
 30
0.0
 10
-42.2173
 20
1.7092
 30
0.0
 10
-42.2173
 20
1.7092
 30
0.0
 10
-42.2098
 20
1.6155
 30
0.0
 10
-42.2098
 20
1.6155
 30
0.0
  0
SPLINE
  5
82
330
1F
100
AcDbEntity
  8
Ilustrace
 62
   250
370
    30
100
AcDbSpline
210
0.0
220
0.0
230
1.0
 70
     8
 71
     3
 72
     8
 73
     4
 74
     0
 42
0.0000000001
 43
0.0000000001
 40
0.0
 40
0.0
 40
0.0
 40
0.0
 40
1.0
 40
1.0
 40
1.0
 40
1.0
 10
-40.9881
 20
6.642
 30
0.0
 10
-40.9418
 20
6.597
 30
0.0
 10
-40.7746
 20
6.4698
 30
0.0
 10
-40.7335
 20
6.3998
 30
0.0
  0
SPLINE
  5
83
330
1F
100
AcDbEntity
  8
Ilustrace
 62
   250
370
    30
100
AcDbSpline
210
0.0
220
0.0
230
1.0
 70
     8
 71
     3
 72
    12
 73
     8
 74
     0
 42
0.0000000001
 43
0.0000000001
 40
0.0
 40
0.0
 40
0.0
 40
0.0
 40
0.3333333333333333
 40
0.3333333333333333
 40
0.3333333333333333
 40
0.3333333333333333
 40
1.0
 40
1.0
 40
1.0
 40
1.0
 10
-40.7335
 20
6.3998
 30
0.0
 10
-40.7335
 20
6.3998
 30
0.0
 10
-40.3817
 20
5.7841
 30
0.0
 10
-40.3817
 20
5.7841
 30
0.0
 10
-40.3817
 20
5.7841
 30
0.0
 10
-40.3817
 20
5.7841
 30
0.0
 10
-39.4892
 20
4.2217
 30
0.0
 10
-39.4892
 20
4.2217
 30
0.0
  0
SPLINE
  5
84
330
1F
100
AcDbEntity
  8
Ilustrace
 62
   250
370
    30
100
AcDbSpline
210
0.0
220
0.0
230
1.0
 70
     8
 71
     3
 72
     8
 73
     4
 74
     0
 42
0.0000000001
 43
0.0000000001
 40
0.0
 40
0.0
 40
0.0
 40
0.0
 40
1.0
 40
1.0
 40
1.0
 40
1.0
 10
-39.4892
 20
4.2217
 30
0.0
 10
-39.344
 20
3.9673
 30
0.0
 10
-39.1507
 20
3.7225
 30
0.0
 10
-39.0757
 20
3.4345
 30
0.0
  0
SPLINE
  5
85
330
1F
100
AcDbEntity
  8
Ilustrace
 62
   250
370
    30
100
AcDbSpline
210
0.0
220
0.0
230
1.0
 70
    24
 71
     3
 72
     8
 73
     4
 74
     0
 42
0.0000000001
 43
0.0000000001
 40
0.0
 40
0.0
 40
0.0
 40
0.0
 40
1.0
 40
1.0
 40
1.0
 40
1.0
 10
-34.137
 20
3.2996
 30
0.0
 10
-34.137
 20
3.2996
 30
0.0
 10
-34.8459
 20
3.2996
 30
0.0
 10
-34.8459
 20
3.2996
 30
0.0
  0
SPLINE
  5
86
330
1F
100
AcDbEntity
  8
Ilustrace
 62
   250
370
    15
100
AcDbSpline
210
0.0
220
0.0
230
1.0
 70
    24
 71
     3
 72
     8
 73
     4
 74
     0
 42
0.0000000001
 43
0.0000000001
 40
0.0
 40
0.0
 40
0.0
 40
0.0
 40
1.0
 40
1.0
 40
1.0
 40
1.0
 10
3.8062
 20
-24.8614
 30
0.0
 10
3.8062
 20
-24.8614
 30
0.0
 10
3.8062
 20
-10.5515
 30
0.0
 10
3.8062
 20
-10.5515
 30
0.0
  0
SPLINE
  5
87
330
1F
100
AcDbEntity
  8
Ilustrace
 62
   250
100
AcDbSpline
210
0.0
220
0.0
230
1.0
 70
    11
 71
     3
 72
    48
 73
    44
 74
     0
 42
0.0000000001
 43
0.0000000001
 40
0.0
 40
0.0
 40
0.0
 40
0.0
 40
0.0833333333333333
 40
0.0833333333333333
 40
0.0833333333333333
 40
0.0833333333333333
 40
0.1666666666666667
 40
0.1666666666666667
 40
0.1666666666666667
 40
0.1666666666666667
 40
0.25
 40
0.25
 40
0.25
 40
0.25
 40
0.3333333333333333
 40
0.3333333333333333
 40
0.3333333333333333
 40
0.3333333333333333
 40
0.4166666666666667
 40
0.4166666666666667
 40
0.4166666666666667
 40
0.4166666666666667
 40
0.5
 40
0.5
 40
0.5
 40
0.5
 40
0.5833333333333334
 40
0.5833333333333334
 40
0.5833333333333334
 40
0.5833333333333334
 40
0.6666666666666666
 40
0.6666666666666666
 40
0.6666666666666666
 40
0.6666666666666666
 40
0.75
 40
0.75
 40
0.75
 40
0.75
 40
0.8333333333333334
 40
0.8333333333333334
 40
0.8333333333333334
 40
0.8333333333333334
 40
1.0
 40
1.0
 40
1.0
 40
1.0
 10
3.046
 20
-18.244
 30
0.0
 10
3.046
 20
-18.244
 30
0.0
 10
2.3553
 20
-18.244
 30
0.0
 10
2.3553
 20
-18.244
 30
0.0
 10
2.3553
 20
-18.244
 30
0.0
 10
2.3553
 20
-18.244
 30
0.0
 10
2.3553
 20
-17.8908
 30
0.0
 10
2.3553
 20
-17.8908
 30
0.0
 10
2.3553
 20
-17.8908
 30
0.0
 10
2.3553
 20
-17.8908
 30
0.0
 10
2.0914
 20
-17.8908
 30
0.0
 10
2.0914
 20
-17.8908
 30
0.0
 10
2.0914
 20
-17.8908
 30
0.0
 10
2.0914
 20
-17.8908
 30
0.0
 10
2.0914
 20
-18.244
 30
0.0
 10
2.0914
 20
-18.244
 30
0.0
 10
2.0914
 20
-18.244
 30
0.0
 10
2.0914
 20
-18.244
 30
0.0
 10
0.5237
 20
-18.244
 30
0.0
 10
0.5237
 20
-18.244
 30
0.0
 10
0.5237
 20
-18.244
 30
0.0
 10
0.5237
 20
-18.244
 30
0.0
 10
0.5237
 20
-18.6126
 30
0.0
 10
0.5237
 20
-18.6126
 30
0.0
 10
0.5237
 20
-18.6126
 30
0.0
 10
0.5237
 20
-18.6126
 30
0.0
 10
2.1341
 20
-19.738
 30
0.0
 10
2.1341
 20
-19.738
 30
0.0
 10
2.1341
 20
-19.738
 30
0.0
 10
2.1341
 20
-19.738
 30
0.0
 10
2.3553
 20
-19.738
 30
0.0
 10
2.3553
 20
-19.738
 30
0.0
 10
2.3553
 20
-19.738
 30
0.0
 10
2.3553
 20
-19.738
 30
0.0
 10
2.3553
 20
-18.5661
 30
0.0
 10
2.3553
 20
-18.5661
 30
0.0
 10
2.3553
 20
-18.5661
 30
0.0
 10
2.3553
 20
-18.5661
 30
0.0
 10
3.046
 20
-18.5661
 30
0.0
 10
3.046
 20
-18.5661
 30
0.0
 10
3.046
 20
-18.5661
 30
0.0
 10
3.046
 20
-18.5661
 30
0.0
 10
3.046
 20
-18.244
 30
0.0
 10
3.046
 20
-18.244
 30
0.0
  0
SPLINE
  5
88
330
1F
100
AcDbEntity
  8
Ilustrace
 62
   250
100
AcDbSpline
210
0.0
220
0.0
230
1.0
 70
    11
 71
     3
 72
    36
 73
    32
 74
     0
 42
0.0000000001
 43
0.0000000001
 40
0.0
 40
0.0
 40
0.0
 40
0.0
 40
0.1111111111111111
 40
0.1111111111111111
 40
0.1111111111111111
 40
0.1111111111111111
 40
0.2222222222222222
 40
0.2222222222222222
 40
0.2222222222222222
 40
0.2222222222222222
 40
0.3333333333333333
 40
0.3333333333333333
 40
0.3333333333333333
 40
0.3333333333333333
 40
0.4444444444444444
 40
0.4444444444444444
 40
0.4444444444444444
 40
0.4444444444444444
 40
0.5555555555555556
 40
0.5555555555555556
 40
0.5555555555555556
 40
0.5555555555555556
 40
0.6666666666666666
 40
0.6666666666666666
 40
0.6666666666666666
 40
0.6666666666666666
 40
0.7777777777777778
 40
0.7777777777777778
 40
0.7777777777777778
 40
0.7777777777777778
 40
1.0
 40
1.0
 40
1.0
 40
1.0
 10
2.0914
 20
-19.3926
 30
0.0
 10
2.0914
 20
-19.3926
 30
0.0
 10
2.0836
 20
-19.3926
 30
0.0
 10
2.0836
 20
-19.3926
 30
0.0
 10
2.0836
 20
-19.3926
 30
0.0
 10
2.0836
 20
-19.3926
 30
0.0
 10
1.226
 20
-18.7756
 30
0.0
 10
1.226
 20
-18.7756
 30
0.0
 10
1.226
 20
-18.7756
 30
0.0
 10
1.1685
 20
-18.7413
 30
0.0
 10
1.1103
 20
-18.7071
 30
0.0
 10
1.0514
 20
-18.6734
 30
0.0
 10
1.0514
 20
-18.6734
 30
0.0
 10
0.9919
 20
-18.6404
 30
0.0
 10
0.9259
 20
-18.6042
 30
0.0
 10
0.8535
 20
-18.5661
 30
0.0
 10
0.8535
 20
-18.5661
 30
0.0
 10
0.8535
 20
-18.5661
 30
0.0
 10
0.8535
 20
-18.5544
 30
0.0
 10
0.8535
 20
-18.5544
 30
0.0
 10
0.8535
 20
-18.5544
 30
0.0
 10
0.9854
 20
-18.5622
 30
0.0
 10
1.1174
 20
-18.5661
 30
0.0
 10
1.2493
 20
-18.5661
 30
0.0
 10
1.2493
 20
-18.5661
 30
0.0
 10
1.2493
 20
-18.5661
 30
0.0
 10
2.0914
 20
-18.5661
 30
0.0
 10
2.0914
 20
-18.5661
 30
0.0
 10
2.0914
 20
-18.5661
 30
0.0
 10
2.0914
 20
-18.5661
 30
0.0
 10
2.0914
 20
-19.3926
 30
0.0
 10
2.0914
 20
-19.3926
 30
0.0
  0
SPLINE
  5
89
330
1F
100
AcDbEntity
  8
Ilustrace
 62
   250
100
AcDbSpline
210
0.0
220
0.0
230
1.0
 70
    11
 71
     3
 72
   124
 73
   120
 74
     0
 42
0.0000000001
 43
0.0000000001
 40
0.0
 40
0.0
 40
0.0
 40
0.0
 40
0.032258064516129
 40
0.032258064516129
 40
0.032258064516129
 40
0.032258064516129
 40
0.0645161290322581
 40
0.0645161290322581
 40
0.0645161290322581
 40
0.0645161290322581
 40
0.0967741935483871
 40
0.0967741935483871
 40
0.0967741935483871
 40
0.0967741935483871
 40
0.1290322580645161
 40
0.1290322580645161
 40
0.1290322580645161
 40
0.1290322580645161
 40
0.1612903225806452
 40
0.1612903225806452
 40
0.1612903225806452
 40
0.1612903225806452
 40
0.1935483870967742
 40
0.1935483870967742
 40
0.1935483870967742
 40
0.1935483870967742
 40
0.2258064516129032
 40
0.2258064516129032
 40
0.2258064516129032
 40
0.2258064516129032
 40
0.2580645161290323
 40
0.2580645161290323
 40
0.2580645161290323
 40
0.2580645161290323
 40
0.2903225806451613
 40
0.2903225806451613
 40
0.2903225806451613
 40
0.2903225806451613
 40
0.3225806451612903
 40
0.3225806451612903
 40
0.3225806451612903
 40
0.3225806451612903
 40
0.3548387096774194
 40
0.3548387096774194
 40
0.3548387096774194
 40
0.3548387096774194
 40
0.3870967741935484
 40
0.3870967741935484
 40
0.3870967741935484
 40
0.3870967741935484
 40
0.4193548387096774
 40
0.4193548387096774
 40
0.4193548387096774
 40
0.4193548387096774
 40
0.4516129032258064
 40
0.4516129032258064
 40
0.4516129032258064
 40
0.4516129032258064
 40
0.4838709677419355
 40
0.4838709677419355
 40
0.4838709677419355
 40
0.4838709677419355
 40
0.5161290322580645
 40
0.5161290322580645
 40
0.5161290322580645
 40
0.5161290322580645
 40
0.5483870967741935
 40
0.5483870967741935
 40
0.5483870967741935
 40
0.5483870967741935
 40
0.5806451612903226
 40
0.5806451612903226
 40
0.5806451612903226
 40
0.5806451612903226
 40
0.6129032258064516
 40
0.6129032258064516
 40
0.6129032258064516
 40
0.6129032258064516
 40
0.6451612903225806
 40
0.6451612903225806
 40
0.6451612903225806
 40
0.6451612903225806
 40
0.6774193548387096
 40
0.6774193548387096
 40
0.6774193548387096
 40
0.6774193548387096
 40
0.7096774193548387
 40
0.7096774193548387
 40
0.7096774193548387
 40
0.7096774193548387
 40
0.7419354838709677
 40
0.7419354838709677
 40
0.7419354838709677
 40
0.7419354838709677
 40
0.7741935483870968
 40
0.7741935483870968
 40
0.7741935483870968
 40
0.7741935483870968
 40
0.8064516129032258
 40
0.8064516129032258
 40
0.8064516129032258
 40
0.8064516129032258
 40
0.8387096774193549
 40
0.8387096774193549
 40
0.8387096774193549
 40
0.8387096774193549
 40
0.8709677419354839
 40
0.8709677419354839
 40
0.8709677419354839
 40
0.8709677419354839
 40
0.9032258064516129
 40
0.9032258064516129
 40
0.9032258064516129
 40
0.9032258064516129
 40
0.9354838709677419
 40
0.9354838709677419
 40
0.9354838709677419
 40
0.9354838709677419
 40
1.0
 40
1.0
 40
1.0
 40
1.0
 10
3.046
 20
-16.0204
 30
0.0
 10
3.046
 20
-16.0204
 30
0.0
 10
2.7627
 20
-16.0204
 30
0.0
 10
2.7627
 20
-16.0204
 30
0.0
 10
2.7627
 20
-16.0204
 30
0.0
 10
2.7627
 20
-16.0204
 30
0.0
 10
2.7627
 20
-17.1497
 30
0.0
 10
2.7627
 20
-17.1497
 30
0.0
 10
2.7627
 20
-17.1497
 30
0.0
 10
2.7627
 20
-17.1497
 30
0.0
 10
2.755
 20
-17.1497
 30
0.0
 10
2.755
 20
-17.1497
 30
0.0
 10
2.755
 20
-17.1497
 30
0.0
 10
2.755
 20
-17.1497
 30
0.0
 10
2.5687
 20
-16.9518
 30
0.0
 10
2.5687
 20
-16.9518
 30
0.0
 10
2.5687
 20
-16.9518
 30
0.0
 10
2.4413
 20
-16.8185
 30
0.0
 10
2.3203
 20
-16.6982
 30
0.0
 10
2.2065
 20
-16.5915
 30
0.0
 10
2.2065
 20
-16.5915
 30
0.0
 10
2.0927
 20
-16.4848
 30
0.0
 10
1.9814
 20
-16.3936
 30
0.0
 10
1.8741
 20
-16.3179
 30
0.0
 10
1.8741
 20
-16.3179
 30
0.0
 10
1.7667
 20
-16.2416
 30
0.0
 10
1.6587
 20
-16.1841
 30
0.0
 10
1.55
 20
-16.1433
 30
0.0
 10
1.55
 20
-16.1433
 30
0.0
 10
1.442
 20
-16.1032
 30
0.0
 10
1.3301
 20
-16.0832
 30
0.0
 10
1.2144
 20
-16.0825
 30
0.0
 10
1.2144
 20
-16.0825
 30
0.0
 10
1.1232
 20
-16.0825
 30
0.0
 10
1.0339
 20
-16.0968
 30
0.0
 10
0.9473
 20
-16.1265
 30
0.0
 10
0.9473
 20
-16.1265
 30
0.0
 10
0.8606
 20
-16.1562
 30
0.0
 10
0.7824
 20
-16.2028
 30
0.0
 10
0.7125
 20
-16.2649
 30
0.0
 10
0.7125
 20
-16.2649
 30
0.0
 10
0.642
 20
-16.327
 30
0.0
 10
0.5864
 20
-16.4072
 30
0.0
 10
0.545
 20
-16.5049
 30
0.0
 10
0.545
 20
-16.5049
 30
0.0
 10
0.5029
 20
-16.6025
 30
0.0
 10
0.4816
 20
-16.7189
 30
0.0
 10
0.481
 20
-16.8548
 30
0.0
 10
0.481
 20
-16.8548
 30
0.0
 10
0.4816
 20
-16.9505
 30
0.0
 10
0.4926
 20
-17.0417
 30
0.0
 10
0.5152
 20
-17.1283
 30
0.0
 10
0.5152
 20
-17.1283
 30
0.0
 10
0.5379
 20
-17.215
 30
0.0
 10
0.5683
 20
-17.2952
 30
0.0
 10
0.6071
 20
-17.3689
 30
0.0
 10
0.6071
 20
-17.3689
 30
0.0
 10
0.6452
 20
-17.442
 30
0.0
 10
0.6886
 20
-17.5073
 30
0.0
 10
0.7371
 20
-17.5649
 30
0.0
 10
0.7371
 20
-17.5649
 30
0.0
 10
0.7371
 20
-17.5649
 30
0.0
 10
0.9777
 20
-17.4562
 30
0.0
 10
0.9777
 20
-17.4562
 30
0.0
 10
0.9777
 20
-17.4562
 30
0.0
 10
0.9447
 20
-17.4174
 30
0.0
 10
0.9117
 20
-17.3709
 30
0.0
 10
0.8794
 20
-17.3165
 30
0.0
 10
0.8794
 20
-17.3165
 30
0.0
 10
0.8464
 20
-17.2622
 30
0.0
 10
0.8199
 20
-17.202
 30
0.0
 10
0.7979
 20
-17.1354
 30
0.0
 10
0.7979
 20
-17.1354
 30
0.0
 10
0.7765
 20
-17.0688
 30
0.0
 10
0.7649
 20
-16.997
 30
0.0
 10
0.7642
 20
-16.9207
 30
0.0
 10
0.7642
 20
-16.9207
 30
0.0
 10
0.7649
 20
-16.8269
 30
0.0
 10
0.7785
 20
-16.748
 30
0.0
 10
0.805
 20
-16.684
 30
0.0
 10
0.805
 20
-16.684
 30
0.0
 10
0.8321
 20
-16.6206
 30
0.0
 10
0.8684
 20
-16.5695
 30
0.0
 10
0.9143
 20
-16.5314
 30
0.0
 10
0.9143
 20
-16.5314
 30
0.0
 10
0.9609
 20
-16.4932
 30
0.0
 10
1.0132
 20
-16.4654
 30
0.0
 10
1.0721
 20
-16.4486
 30
0.0
 10
1.0721
 20
-16.4486
 30
0.0
 10
1.1309
 20
-16.4318
 30
0.0
 10
1.1924
 20
-16.4234
 30
0.0
 10
1.2571
 20
-16.424
 30
0.0
 10
1.2571
 20
-16.424
 30
0.0
 10
1.3515
 20
-16.424
 30
0.0
 10
1.4446
 20
-16.4428
 30
0.0
 10
1.5371
 20
-16.4803
 30
0.0
 10
1.5371
 20
-16.4803
 30
0.0
 10
1.6302
 20
-16.5178
 30
0.0
 10
1.7273
 20
-16.5747
 30
0.0
 10
1.8295
 20
-16.6517
 30
0.0
 10
1.8295
 20
-16.6517
 30
0.0
 10
1.9316
 20
-16.7286
 30
0.0
 10
2.0435
 20
-16.8263
 30
0.0
 10
2.1651
 20
-16.9446
 30
0.0
 10
2.1651
 20
-16.9446
 30
0.0
 10
2.2867
 20
-17.0624
 30
0.0
 10
2.4238
 20
-17.202
 30
0.0
 10
2.5765
 20
-17.3631
 30
0.0
 10
2.5765
 20
-17.3631
 30
0.0
 10
2.5765
 20
-17.3631
 30
0.0
 10
2.8364
 20
-17.6309
 30
0.0
 10
2.8364
 20
-17.6309
 30
0.0
 10
2.8364
 20
-17.6309
 30
0.0
 10
2.8364
 20
-17.6309
 30
0.0
 10
3.046
 20
-17.6309
 30
0.0
 10
3.046
 20
-17.6309
 30
0.0
 10
3.046
 20
-17.6309
 30
0.0
 10
3.046
 20
-17.6309
 30
0.0
 10
3.046
 20
-16.0204
 30
0.0
 10
3.046
 20
-16.0204
 30
0.0
  0
SPLINE
  5
8A
330
1F
100
AcDbEntity
  8
Ilustrace
 62
   250
370
    15
100
AcDbSpline
210
0.0
220
0.0
230
1.0
 70
    24
 71
     3
 72
     8
 73
     4
 74
     0
 42
0.0000000001
 43
0.0000000001
 40
0.0
 40
0.0
 40
0.0
 40
0.0
 40
1.0
 40
1.0
 40
1.0
 40
1.0
 10
3.4115
 20
-10.5184
 30
0.0
 10
3.4115
 20
-10.5184
 30
0.0
 10
9.4523
 20
-10.5184
 30
0.0
 10
9.4523
 20
-10.5184
 30
0.0
  0
SPLINE
  5
8B
330
1F
100
AcDbEntity
  8
Ilustrace
 62
   250
370
    15
100
AcDbSpline
210
0.0
220
0.0
230
1.0
 70
    24
 71
     3
 72
     8
 73
     4
 74
     0
 42
0.0000000001
 43
0.0000000001
 40
0.0
 40
0.0
 40
0.0
 40
0.0
 40
1.0
 40
1.0
 40
1.0
 40
1.0
 10
3.3458
 20
-25.4311
 30
0.0
 10
3.3458
 20
-25.4311
 30
0.0
 10
10.799
 20
-25.4311
 30
0.0
 10
10.799
 20
-25.4311
 30
0.0
  0
SPLINE
  5
8C
330
1F
100
AcDbEntity
  8
Ilustrace
 62
   250
370
    15
100
AcDbSpline
210
0.0
220
0.0
230
1.0
 70
    24
 71
     3
 72
     8
 73
     4
 74
     0
 42
0.0000000001
 43
0.0000000001
 40
0.0
 40
0.0
 40
0.0
 40
0.0
 40
1.0
 40
1.0
 40
1.0
 40
1.0
 10
8.5419
 20
-6.3094
 30
0.0
 10
8.5419
 20
-6.3094
 30
0.0
 10
42.6561
 20
-6.3094
 30
0.0
 10
42.6561
 20
-6.3094
 30
0.0
  0
SPLINE
  5
8D
330
1F
100
AcDbEntity
  8
Ilustrace
 62
   250
100
AcDbSpline
210
0.0
220
0.0
230
1.0
 70
    11
 71
     3
 72
   124
 73
   120
 74
     0
 42
0.0000000001
 43
0.0000000001
 40
0.0
 40
0.0
 40
0.0
 40
0.0
 40
0.032258064516129
 40
0.032258064516129
 40
0.032258064516129
 40
0.032258064516129
 40
0.0645161290322581
 40
0.0645161290322581
 40
0.0645161290322581
 40
0.0645161290322581
 40
0.0967741935483871
 40
0.0967741935483871
 40
0.0967741935483871
 40
0.0967741935483871
 40
0.1290322580645161
 40
0.1290322580645161
 40
0.1290322580645161
 40
0.1290322580645161
 40
0.1612903225806452
 40
0.1612903225806452
 40
0.1612903225806452
 40
0.1612903225806452
 40
0.1935483870967742
 40
0.1935483870967742
 40
0.1935483870967742
 40
0.1935483870967742
 40
0.2258064516129032
 40
0.2258064516129032
 40
0.2258064516129032
 40
0.2258064516129032
 40
0.2580645161290323
 40
0.2580645161290323
 40
0.2580645161290323
 40
0.2580645161290323
 40
0.2903225806451613
 40
0.2903225806451613
 40
0.2903225806451613
 40
0.2903225806451613
 40
0.3225806451612903
 40
0.3225806451612903
 40
0.3225806451612903
 40
0.3225806451612903
 40
0.3548387096774194
 40
0.3548387096774194
 40
0.3548387096774194
 40
0.3548387096774194
 40
0.3870967741935484
 40
0.3870967741935484
 40
0.3870967741935484
 40
0.3870967741935484
 40
0.4193548387096774
 40
0.4193548387096774
 40
0.4193548387096774
 40
0.4193548387096774
 40
0.4516129032258064
 40
0.4516129032258064
 40
0.4516129032258064
 40
0.4516129032258064
 40
0.4838709677419355
 40
0.4838709677419355
 40
0.4838709677419355
 40
0.4838709677419355
 40
0.5161290322580645
 40
0.5161290322580645
 40
0.5161290322580645
 40
0.5161290322580645
 40
0.5483870967741935
 40
0.5483870967741935
 40
0.5483870967741935
 40
0.5483870967741935
 40
0.5806451612903226
 40
0.5806451612903226
 40
0.5806451612903226
 40
0.5806451612903226
 40
0.6129032258064516
 40
0.6129032258064516
 40
0.6129032258064516
 40
0.6129032258064516
 40
0.6451612903225806
 40
0.6451612903225806
 40
0.6451612903225806
 40
0.6451612903225806
 40
0.6774193548387096
 40
0.6774193548387096
 40
0.6774193548387096
 40
0.6774193548387096
 40
0.7096774193548387
 40
0.7096774193548387
 40
0.7096774193548387
 40
0.7096774193548387
 40
0.7419354838709677
 40
0.7419354838709677
 40
0.7419354838709677
 40
0.7419354838709677
 40
0.7741935483870968
 40
0.7741935483870968
 40
0.7741935483870968
 40
0.7741935483870968
 40
0.8064516129032258
 40
0.8064516129032258
 40
0.8064516129032258
 40
0.8064516129032258
 40
0.8387096774193549
 40
0.8387096774193549
 40
0.8387096774193549
 40
0.8387096774193549
 40
0.8709677419354839
 40
0.8709677419354839
 40
0.8709677419354839
 40
0.8709677419354839
 40
0.9032258064516129
 40
0.9032258064516129
 40
0.9032258064516129
 40
0.9032258064516129
 40
0.9354838709677419
 40
0.9354838709677419
 40
0.9354838709677419
 40
0.9354838709677419
 40
1.0
 40
1.0
 40
1.0
 40
1.0
 10
25.0823
 20
-5.762
 30
0.0
 10
25.1231
 20
-5.7639
 30
0.0
 10
25.1703
 20
-5.7639
 30
0.0
 10
25.2233
 20
-5.7607
 30
0.0
 10
25.2233
 20
-5.7607
 30
0.0
 10
25.2764
 20
-5.7581
 30
0.0
 10
25.3346
 20
-5.7523
 30
0.0
 10
25.3967
 20
-5.7426
 30
0.0
 10
25.3967
 20
-5.7426
 30
0.0
 10
25.4879
 20
-5.7323
 30
0.0
 10
25.5771
 20
-5.7122
 30
0.0
 10
25.6644
 20
-5.6838
 30
0.0
 10
25.6644
 20
-5.6838
 30
0.0
 10
25.7517
 20
-5.6546
 30
0.0
 10
25.8351
 20
-5.6165
 30
0.0
 10
25.9141
 20
-5.5699
 30
0.0
 10
25.9141
 20
-5.5699
 30
0.0
 10
25.993
 20
-5.5234
 30
0.0
 10
26.0647
 20
-5.4684
 30
0.0
 10
26.1301
 20
-5.405
 30
0.0
 10
26.1301
 20
-5.405
 30
0.0
 10
26.2135
 20
-5.3248
 30
0.0
 10
26.2879
 20
-5.2284
 30
0.0
 10
26.3532
 20
-5.1146
 30
0.0
 10
26.3532
 20
-5.1146
 30
0.0
 10
26.4185
 20
-5.0014
 30
0.0
 10
26.4696
 20
-4.8708
 30
0.0
 10
26.5071
 20
-4.7227
 30
0.0
 10
26.5071
 20
-4.7227
 30
0.0
 10
26.5447
 20
-4.5746
 30
0.0
 10
26.5641
 20
-4.409
 30
0.0
 10
26.5647
 20
-4.2253
 30
0.0
 10
26.5647
 20
-4.2253
 30
0.0
 10
26.5647
 20
-4.0617
 30
0.0
 10
26.5453
 20
-3.9149
 30
0.0
 10
26.5071
 20
-3.7836
 30
0.0
 10
26.5071
 20
-3.7836
 30
0.0
 10
26.469
 20
-3.6523
 30
0.0
 10
26.4134
 20
-3.5404
 30
0.0
 10
26.3409
 20
-3.4473
 30
0.0
 10
26.3409
 20
-3.4473
 30
0.0
 10
26.2685
 20
-3.3541
 30
0.0
 10
26.1812
 20
-3.283
 30
0.0
 10
26.0783
 20
-3.2332
 30
0.0
 10
26.0783
 20
-3.2332
 30
0.0
 10
25.9755
 20
-3.1834
 30
0.0
 10
25.8597
 20
-3.1588
 30
0.0
 10
25.7304
 20
-3.1582
 30
0.0
 10
25.7304
 20
-3.1582
 30
0.0
 10
25.601
 20
-3.1588
 30
0.0
 10
25.4833
 20
-3.1834
 30
0.0
 10
25.3779
 20
-3.2312
 30
0.0
 10
25.3779
 20
-3.2312
 30
0.0
 10
25.2725
 20
-3.2784
 30
0.0
 10
25.1819
 20
-3.3444
 30
0.0
 10
25.1063
 20
-3.4272
 30
0.0
 10
25.1063
 20
-3.4272
 30
0.0
 10
25.0299
 20
-3.5106
 30
0.0
 10
24.9717
 20
-3.6057
 30
0.0
 10
24.931
 20
-3.7131
 30
0.0
 10
24.931
 20
-3.7131
 30
0.0
 10
24.8903
 20
-3.8204
 30
0.0
 10
24.8695
 20
-3.9343
 30
0.0
 10
24.8689
 20
-4.0546
 30
0.0
 10
24.8689
 20
-4.0546
 30
0.0
 10
24.8695
 20
-4.1626
 30
0.0
 10
24.887
 20
-4.2635
 30
0.0
 10
24.9213
 20
-4.3566
 30
0.0
 10
24.9213
 20
-4.3566
 30
0.0
 10
24.9562
 20
-4.4504
 30
0.0
 10
25.006
 20
-4.5319
 30
0.0
 10
25.0707
 20
-4.6024
 30
0.0
 10
25.0707
 20
-4.6024
 30
0.0
 10
25.1354
 20
-4.6722
 30
0.0
 10
25.2136
 20
-4.7272
 30
0.0
 10
25.3042
 20
-4.7666
 30
0.0
 10
25.3042
 20
-4.7666
 30
0.0
 10
25.3954
 20
-4.8061
 30
0.0
 10
25.4969
 20
-4.8261
 30
0.0
 10
25.6101
 20
-4.8268
 30
0.0
 10
25.6101
 20
-4.8268
 30
0.0
 10
25.7381
 20
-4.8261
 30
0.0
 10
25.8526
 20
-4.8029
 30
0.0
 10
25.9529
 20
-4.7569
 30
0.0
 10
25.9529
 20
-4.7569
 30
0.0
 10
26.0525
 20
-4.711
 30
0.0
 10
26.1378
 20
-4.6451
 30
0.0
 10
26.2077
 20
-4.559
 30
0.0
 10
26.2077
 20
-4.559
 30
0.0
 10
26.2077
 20
-4.559
 30
0.0
 10
26.2193
 20
-4.559
 30
0.0
 10
26.2193
 20
-4.559
 30
0.0
 10
26.2193
 20
-4.559
 30
0.0
 10
26.1954
 20
-4.7065
 30
0.0
 10
26.1547
 20
-4.8358
 30
0.0
 10
26.0977
 20
-4.9464
 30
0.0
 10
26.0977
 20
-4.9464
 30
0.0
 10
26.0402
 20
-5.0577
 30
0.0
 10
25.9697
 20
-5.1508
 30
0.0
 10
25.8856
 20
-5.2265
 30
0.0
 10
25.8856
 20
-5.2265
 30
0.0
 10
25.8132
 20
-5.2963
 30
0.0
 10
25.7323
 20
-5.3507
 30
0.0
 10
25.6424
 20
-5.3908
 30
0.0
 10
25.6424
 20
-5.3908
 30
0.0
 10
25.5525
 20
-5.4309
 30
0.0
 10
25.4575
 20
-5.4574
 30
0.0
 10
25.3578
 20
-5.471
 30
0.0
 10
25.3578
 20
-5.471
 30
0.0
 10
25.3003
 20
-5.4768
 30
0.0
 10
25.2485
 20
-5.4813
 30
0.0
 10
25.2039
 20
-5.4839
 30
0.0
 10
25.2039
 20
-5.4839
 30
0.0
 10
25.1593
 20
-5.4865
 30
0.0
 10
25.1186
 20
-5.4865
 30
0.0
 10
25.0823
 20
-5.4826
 30
0.0
 10
25.0823
 20
-5.4826
 30
0.0
 10
25.0823
 20
-5.4826
 30
0.0
 10
25.0823
 20
-5.762
 30
0.0
 10
25.0823
 20
-5.762
 30
0.0
  0
SPLINE
  5
8E
330
1F
100
AcDbEntity
  8
Ilustrace
 62
   250
100
AcDbSpline
210
0.0
220
0.0
230
1.0
 70
    11
 71
     3
 72
    64
 73
    60
 74
     0
 42
0.0000000001
 43
0.0000000001
 40
0.0
 40
0.0
 40
0.0
 40
0.0
 40
0.0625
 40
0.0625
 40
0.0625
 40
0.0625
 40
0.125
 40
0.125
 40
0.125
 40
0.125
 40
0.1875
 40
0.1875
 40
0.1875
 40
0.1875
 40
0.25
 40
0.25
 40
0.25
 40
0.25
 40
0.3125
 40
0.3125
 40
0.3125
 40
0.3125
 40
0.375
 40
0.375
 40
0.375
 40
0.375
 40
0.4375
 40
0.4375
 40
0.4375
 40
0.4375
 40
0.5
 40
0.5
 40
0.5
 40
0.5
 40
0.5625
 40
0.5625
 40
0.5625
 40
0.5625
 40
0.625
 40
0.625
 40
0.625
 40
0.625
 40
0.6875
 40
0.6875
 40
0.6875
 40
0.6875
 40
0.75
 40
0.75
 40
0.75
 40
0.75
 40
0.8125
 40
0.8125
 40
0.8125
 40
0.8125
 40
0.875
 40
0.875
 40
0.875
 40
0.875
 40
1.0
 40
1.0
 40
1.0
 40
1.0
 10
25.6993
 20
-3.4182
 30
0.0
 10
25.7892
 20
-3.4188
 30
0.0
 10
25.8675
 20
-3.4382
 30
0.0
 10
25.9328
 20
-3.4764
 30
0.0
 10
25.9328
 20
-3.4764
 30
0.0
 10
25.9981
 20
-3.5145
 30
0.0
 10
26.0525
 20
-3.5682
 30
0.0
 10
26.0945
 20
-3.6368
 30
0.0
 10
26.0945
 20
-3.6368
 30
0.0
 10
26.1372
 20
-3.7053
 30
0.0
 10
26.1682
 20
-3.7862
 30
0.0
 10
26.1889
 20
-3.878
 30
0.0
 10
26.1889
 20
-3.878
 30
0.0
 10
26.2096
 20
-3.9705
 30
0.0
 10
26.2193
 20
-4.0707
 30
0.0
 10
26.2193
 20
-4.1787
 30
0.0
 10
26.2193
 20
-4.1787
 30
0.0
 10
26.2193
 20
-4.2072
 30
0.0
 10
26.2167
 20
-4.2318
 30
0.0
 10
26.2109
 20
-4.2512
 30
0.0
 10
26.2109
 20
-4.2512
 30
0.0
 10
26.2058
 20
-4.2712
 30
0.0
 10
26.198
 20
-4.29
 30
0.0
 10
26.1883
 20
-4.3068
 30
0.0
 10
26.1883
 20
-4.3068
 30
0.0
 10
26.1585
 20
-4.3579
 30
0.0
 10
26.1191
 20
-4.4032
 30
0.0
 10
26.0706
 20
-4.4426
 30
0.0
 10
26.0706
 20
-4.4426
 30
0.0
 10
26.0227
 20
-4.4821
 30
0.0
 10
25.9664
 20
-4.5131
 30
0.0
 10
25.9024
 20
-4.5358
 30
0.0
 10
25.9024
 20
-4.5358
 30
0.0
 10
25.8384
 20
-4.5584
 30
0.0
 10
25.7679
 20
-4.57
 30
0.0
 10
25.6916
 20
-4.5707
 30
0.0
 10
25.6916
 20
-4.5707
 30
0.0
 10
25.5926
 20
-4.57
 30
0.0
 10
25.5072
 20
-4.5468
 30
0.0
 10
25.4348
 20
-4.5015
 30
0.0
 10
25.4348
 20
-4.5015
 30
0.0
 10
25.3624
 20
-4.4562
 30
0.0
 10
25.3061
 20
-4.3941
 30
0.0
 10
25.2667
 20
-4.3139
 30
0.0
 10
25.2667
 20
-4.3139
 30
0.0
 10
25.2272
 20
-4.2337
 30
0.0
 10
25.2072
 20
-4.1406
 30
0.0
 10
25.2065
 20
-4.0352
 30
0.0
 10
25.2065
 20
-4.0352
 30
0.0
 10
25.2072
 20
-3.9136
 30
0.0
 10
25.2285
 20
-3.8068
 30
0.0
 10
25.2705
 20
-3.715
 30
0.0
 10
25.2705
 20
-3.715
 30
0.0
 10
25.3126
 20
-3.6225
 30
0.0
 10
25.3701
 20
-3.5501
 30
0.0
 10
25.4439
 20
-3.4977
 30
0.0
 10
25.4439
 20
-3.4977
 30
0.0
 10
25.5176
 20
-3.4453
 30
0.0
 10
25.603
 20
-3.4188
 30
0.0
 10
25.6993
 20
-3.4182
 30
0.0
  0
SPLINE
  5
8F
330
1F
100
AcDbEntity
  8
Ilustrace
 62
   250
100
AcDbSpline
210
0.0
220
0.0
230
1.0
 70
    11
 71
     3
 72
   124
 73
   120
 74
     0
 42
0.0000000001
 43
0.0000000001
 40
0.0
 40
0.0
 40
0.0
 40
0.0
 40
0.032258064516129
 40
0.032258064516129
 40
0.032258064516129
 40
0.032258064516129
 40
0.0645161290322581
 40
0.0645161290322581
 40
0.0645161290322581
 40
0.0645161290322581
 40
0.0967741935483871
 40
0.0967741935483871
 40
0.0967741935483871
 40
0.0967741935483871
 40
0.1290322580645161
 40
0.1290322580645161
 40
0.1290322580645161
 40
0.1290322580645161
 40
0.1612903225806452
 40
0.1612903225806452
 40
0.1612903225806452
 40
0.1612903225806452
 40
0.1935483870967742
 40
0.1935483870967742
 40
0.1935483870967742
 40
0.1935483870967742
 40
0.2258064516129032
 40
0.2258064516129032
 40
0.2258064516129032
 40
0.2258064516129032
 40
0.2580645161290323
 40
0.2580645161290323
 40
0.2580645161290323
 40
0.2580645161290323
 40
0.2903225806451613
 40
0.2903225806451613
 40
0.2903225806451613
 40
0.2903225806451613
 40
0.3225806451612903
 40
0.3225806451612903
 40
0.3225806451612903
 40
0.3225806451612903
 40
0.3548387096774194
 40
0.3548387096774194
 40
0.3548387096774194
 40
0.3548387096774194
 40
0.3870967741935484
 40
0.3870967741935484
 40
0.3870967741935484
 40
0.3870967741935484
 40
0.4193548387096774
 40
0.4193548387096774
 40
0.4193548387096774
 40
0.4193548387096774
 40
0.4516129032258064
 40
0.4516129032258064
 40
0.4516129032258064
 40
0.4516129032258064
 40
0.4838709677419355
 40
0.4838709677419355
 40
0.4838709677419355
 40
0.4838709677419355
 40
0.5161290322580645
 40
0.5161290322580645
 40
0.5161290322580645
 40
0.5161290322580645
 40
0.5483870967741935
 40
0.5483870967741935
 40
0.5483870967741935
 40
0.5483870967741935
 40
0.5806451612903226
 40
0.5806451612903226
 40
0.5806451612903226
 40
0.5806451612903226
 40
0.6129032258064516
 40
0.6129032258064516
 40
0.6129032258064516
 40
0.6129032258064516
 40
0.6451612903225806
 40
0.6451612903225806
 40
0.6451612903225806
 40
0.6451612903225806
 40
0.6774193548387096
 40
0.6774193548387096
 40
0.6774193548387096
 40
0.6774193548387096
 40
0.7096774193548387
 40
0.7096774193548387
 40
0.7096774193548387
 40
0.7096774193548387
 40
0.7419354838709677
 40
0.7419354838709677
 40
0.7419354838709677
 40
0.7419354838709677
 40
0.7741935483870968
 40
0.7741935483870968
 40
0.7741935483870968
 40
0.7741935483870968
 40
0.8064516129032258
 40
0.8064516129032258
 40
0.8064516129032258
 40
0.8064516129032258
 40
0.8387096774193549
 40
0.8387096774193549
 40
0.8387096774193549
 40
0.8387096774193549
 40
0.8709677419354839
 40
0.8709677419354839
 40
0.8709677419354839
 40
0.8709677419354839
 40
0.9032258064516129
 40
0.9032258064516129
 40
0.9032258064516129
 40
0.9032258064516129
 40
0.9354838709677419
 40
0.9354838709677419
 40
0.9354838709677419
 40
0.9354838709677419
 40
1.0
 40
1.0
 40
1.0
 40
1.0
 10
27.3447
 20
-4.4077
 30
0.0
 10
27.2406
 20
-4.4517
 30
0.0
 10
27.1513
 20
-4.5067
 30
0.0
 10
27.0769
 20
-4.5713
 30
0.0
 10
27.0769
 20
-4.5713
 30
0.0
 10
27.0025
 20
-4.6366
 30
0.0
 10
26.945
 20
-4.7123
 30
0.0
 10
26.9049
 20
-4.7983
 30
0.0
 10
26.9049
 20
-4.7983
 30
0.0
 10
26.8648
 20
-4.8844
 30
0.0
 10
26.8447
 20
-4.9807
 30
0.0
 10
26.8441
 20
-5.0868
 30
0.0
 10
26.8441
 20
-5.0868
 30
0.0
 10
26.8447
 20
-5.1799
 30
0.0
 10
26.8635
 20
-5.2666
 30
0.0
 10
26.9023
 20
-5.3487
 30
0.0
 10
26.9023
 20
-5.3487
 30
0.0
 10
26.9405
 20
-5.4302
 30
0.0
 10
26.9961
 20
-5.502
 30
0.0
 10
27.0692
 20
-5.5647
 30
0.0
 10
27.0692
 20
-5.5647
 30
0.0
 10
27.1423
 20
-5.6268
 30
0.0
 10
27.2309
 20
-5.676
 30
0.0
 10
27.335
 20
-5.7116
 30
0.0
 10
27.335
 20
-5.7116
 30
0.0
 10
27.4398
 20
-5.7471
 30
0.0
 10
27.5581
 20
-5.7652
 30
0.0
 10
27.6901
 20
-5.7659
 30
0.0
 10
27.6901
 20
-5.7659
 30
0.0
 10
27.811
 20
-5.7652
 30
0.0
 10
27.9235
 20
-5.7478
 30
0.0
 10
28.027
 20
-5.7135
 30
0.0
 10
28.027
 20
-5.7135
 30
0.0
 10
28.1305
 20
-5.6792
 30
0.0
 10
28.2217
 20
-5.6294
 30
0.0
 10
28.2993
 20
-5.5647
 30
0.0
 10
28.2993
 20
-5.5647
 30
0.0
 10
28.3769
 20
-5.5007
 30
0.0
 10
28.4377
 20
-5.4237
 30
0.0
 10
28.481
 20
-5.3339
 30
0.0
 10
28.481
 20
-5.3339
 30
0.0
 10
28.525
 20
-5.2439
 30
0.0
 10
28.547
 20
-5.1437
 30
0.0
 10
28.5477
 20
-5.0325
 30
0.0
 10
28.5477
 20
-5.0325
 30
0.0
 10
28.547
 20
-4.9316
 30
0.0
 10
28.5263
 20
-4.8397
 30
0.0
 10
28.4856
 20
-4.7563
 30
0.0
 10
28.4856
 20
-4.7563
 30
0.0
 10
28.4448
 20
-4.6735
 30
0.0
 10
28.3866
 20
-4.6004
 30
0.0
 10
28.3109
 20
-4.5377
 30
0.0
 10
28.3109
 20
-4.5377
 30
0.0
 10
28.2353
 20
-4.4743
 30
0.0
 10
28.1447
 20
-4.4219
 30
0.0
 10
28.0393
 20
-4.3805
 30
0.0
 10
28.0393
 20
-4.3805
 30
0.0
 10
28.0393
 20
-4.3805
 30
0.0
 10
28.0393
 20
-4.3689
 30
0.0
 10
28.0393
 20
-4.3689
 30
0.0
 10
28.0393
 20
-4.3689
 30
0.0
 10
28.1421
 20
-4.3204
 30
0.0
 10
28.2243
 20
-4.2641
 30
0.0
 10
28.2857
 20
-4.1994
 30
0.0
 10
28.2857
 20
-4.1994
 30
0.0
 10
28.3472
 20
-4.1354
 30
0.0
 10
28.3918
 20
-4.0669
 30
0.0
 10
28.419
 20
-3.9951
 30
0.0
 10
28.419
 20
-3.9951
 30
0.0
 10
28.4455
 20
-3.9226
 30
0.0
 10
28.4591
 20
-3.8508
 30
0.0
 10
28.4584
 20
-3.779
 30
0.0
 10
28.4584
 20
-3.779
 30
0.0
 10
28.4584
 20
-3.6988
 30
0.0
 10
28.4429
 20
-3.6212
 30
0.0
 10
28.4118
 20
-3.5475
 30
0.0
 10
28.4118
 20
-3.5475
 30
0.0
 10
28.3808
 20
-3.4738
 30
0.0
 10
28.3349
 20
-3.4078
 30
0.0
 10
28.2734
 20
-3.349
 30
0.0
 10
28.2734
 20
-3.349
 30
0.0
 10
28.2113
 20
-3.2907
 30
0.0
 10
28.1344
 20
-3.2442
 30
0.0
 10
28.0425
 20
-3.2105
 30
0.0
 10
28.0425
 20
-3.2105
 30
0.0
 10
27.9507
 20
-3.1763
 30
0.0
 10
27.8433
 20
-3.1588
 30
0.0
 10
27.7211
 20
-3.1582
 30
0.0
 10
27.7211
 20
-3.1582
 30
0.0
 10
27.6092
 20
-3.1588
 30
0.0
 10
27.5051
 20
-3.175
 30
0.0
 10
27.4106
 20
-3.2067
 30
0.0
 10
27.4106
 20
-3.2067
 30
0.0
 10
27.3156
 20
-3.239
 30
0.0
 10
27.2328
 20
-3.2843
 30
0.0
 10
27.1617
 20
-3.3438
 30
0.0
 10
27.1617
 20
-3.3438
 30
0.0
 10
27.0912
 20
-3.4033
 30
0.0
 10
27.0362
 20
-3.4738
 30
0.0
 10
26.9967
 20
-3.5559
 30
0.0
 10
26.9967
 20
-3.5559
 30
0.0
 10
26.9579
 20
-3.6381
 30
0.0
 10
26.9379
 20
-3.7293
 30
0.0
 10
26.9372
 20
-3.8295
 30
0.0
 10
26.9372
 20
-3.8295
 30
0.0
 10
26.9372
 20
-3.9026
 30
0.0
 10
26.9508
 20
-3.9737
 30
0.0
 10
26.9793
 20
-4.0436
 30
0.0
 10
26.9793
 20
-4.0436
 30
0.0
 10
27.0071
 20
-4.1134
 30
0.0
 10
27.0511
 20
-4.1787
 30
0.0
 10
27.1106
 20
-4.2389
 30
0.0
 10
27.1106
 20
-4.2389
 30
0.0
 10
27.1701
 20
-4.299
 30
0.0
 10
27.2464
 20
-4.3514
 30
0.0
 10
27.3408
 20
-4.3961
 30
0.0
 10
27.3408
 20
-4.3961
 30
0.0
 10
27.3408
 20
-4.3961
 30
0.0
 10
27.3447
 20
-4.4077
 30
0.0
 10
27.3447
 20
-4.4077
 30
0.0
  0
SPLINE
  5
90
330
1F
100
AcDbEntity
  8
Ilustrace
 62
   250
100
AcDbSpline
210
0.0
220
0.0
230
1.0
 70
    11
 71
     3
 72
    56
 73
    52
 74
     0
 42
0.0000000001
 43
0.0000000001
 40
0.0
 40
0.0
 40
0.0
 40
0.0
 40
0.0714285714285714
 40
0.0714285714285714
 40
0.0714285714285714
 40
0.0714285714285714
 40
0.1428571428571428
 40
0.1428571428571428
 40
0.1428571428571428
 40
0.1428571428571428
 40
0.2142857142857143
 40
0.2142857142857143
 40
0.2142857142857143
 40
0.2142857142857143
 40
0.2857142857142857
 40
0.2857142857142857
 40
0.2857142857142857
 40
0.2857142857142857
 40
0.3571428571428572
 40
0.3571428571428572
 40
0.3571428571428572
 40
0.3571428571428572
 40
0.4285714285714285
 40
0.4285714285714285
 40
0.4285714285714285
 40
0.4285714285714285
 40
0.5
 40
0.5
 40
0.5
 40
0.5
 40
0.5714285714285714
 40
0.5714285714285714
 40
0.5714285714285714
 40
0.5714285714285714
 40
0.6428571428571429
 40
0.6428571428571429
 40
0.6428571428571429
 40
0.6428571428571429
 40
0.7142857142857143
 40
0.7142857142857143
 40
0.7142857142857143
 40
0.7142857142857143
 40
0.7857142857142857
 40
0.7857142857142857
 40
0.7857142857142857
 40
0.7857142857142857
 40
0.8571428571428571
 40
0.8571428571428571
 40
0.8571428571428571
 40
0.8571428571428571
 40
1.0
 40
1.0
 40
1.0
 40
1.0
 10
27.6978
 20
-5.5175
 30
0.0
 10
27.617
 20
-5.5169
 30
0.0
 10
27.5452
 20
-5.5039
 30
0.0
 10
27.4818
 20
-5.4787
 30
0.0
 10
27.4818
 20
-5.4787
 30
0.0
 10
27.4178
 20
-5.4529
 30
0.0
 10
27.3641
 20
-5.4179
 30
0.0
 10
27.3201
 20
-5.3733
 30
0.0
 10
27.3201
 20
-5.3733
 30
0.0
 10
27.2768
 20
-5.3293
 30
0.0
 10
27.2438
 20
-5.2782
 30
0.0
 10
27.2218
 20
-5.2213
 30
0.0
 10
27.2218
 20
-5.2213
 30
0.0
 10
27.2005
 20
-5.1644
 30
0.0
 10
27.1908
 20
-5.1036
 30
0.0
 10
27.1933
 20
-5.0402
 30
0.0
 10
27.1933
 20
-5.0402
 30
0.0
 10
27.1933
 20
-4.9594
 30
0.0
 10
27.2108
 20
-4.885
 30
0.0
 10
27.2457
 20
-4.8165
 30
0.0
 10
27.2457
 20
-4.8165
 30
0.0
 10
27.28
 20
-4.7479
 30
0.0
 10
27.3311
 20
-4.6877
 30
0.0
 10
27.3984
 20
-4.6366
 30
0.0
 10
27.3984
 20
-4.6366
 30
0.0
 10
27.4663
 20
-4.5856
 30
0.0
 10
27.5491
 20
-4.5455
 30
0.0
 10
27.6474
 20
-4.5164
 30
0.0
 10
27.6474
 20
-4.5164
 30
0.0
 10
27.7618
 20
-4.548
 30
0.0
 10
27.8602
 20
-4.5875
 30
0.0
 10
27.9429
 20
-4.6353
 30
0.0
 10
27.9429
 20
-4.6353
 30
0.0
 10
28.0257
 20
-4.6826
 30
0.0
 10
28.0897
 20
-4.7414
 30
0.0
 10
28.1344
 20
-4.8113
 30
0.0
 10
28.1344
 20
-4.8113
 30
0.0
 10
28.179
 20
-4.8818
 30
0.0
 10
28.2016
 20
-4.9671
 30
0.0
 10
28.2023
 20
-5.0674
 30
0.0
 10
28.2023
 20
-5.0674
 30
0.0
 10
28.2016
 20
-5.1547
 30
0.0
 10
28.1809
 20
-5.2323
 30
0.0
 10
28.1395
 20
-5.2996
 30
0.0
 10
28.1395
 20
-5.2996
 30
0.0
 10
28.0982
 20
-5.3668
 30
0.0
 10
28.04
 20
-5.4199
 30
0.0
 10
27.9649
 20
-5.4587
 30
0.0
 10
27.9649
 20
-5.4587
 30
0.0
 10
27.8899
 20
-5.4975
 30
0.0
 10
27.8006
 20
-5.5169
 30
0.0
 10
27.6978
 20
-5.5175
 30
0.0
  0
SPLINE
  5
91
330
1F
100
AcDbEntity
  8
Ilustrace
 62
   250
100
AcDbSpline
210
0.0
220
0.0
230
1.0
 70
    11
 71
     3
 72
    56
 73
    52
 74
     0
 42
0.0000000001
 43
0.0000000001
 40
0.0
 40
0.0
 40
0.0
 40
0.0
 40
0.0714285714285714
 40
0.0714285714285714
 40
0.0714285714285714
 40
0.0714285714285714
 40
0.1428571428571428
 40
0.1428571428571428
 40
0.1428571428571428
 40
0.1428571428571428
 40
0.2142857142857143
 40
0.2142857142857143
 40
0.2142857142857143
 40
0.2142857142857143
 40
0.2857142857142857
 40
0.2857142857142857
 40
0.2857142857142857
 40
0.2857142857142857
 40
0.3571428571428572
 40
0.3571428571428572
 40
0.3571428571428572
 40
0.3571428571428572
 40
0.4285714285714285
 40
0.4285714285714285
 40
0.4285714285714285
 40
0.4285714285714285
 40
0.5
 40
0.5
 40
0.5
 40
0.5
 40
0.5714285714285714
 40
0.5714285714285714
 40
0.5714285714285714
 40
0.5714285714285714
 40
0.6428571428571429
 40
0.6428571428571429
 40
0.6428571428571429
 40
0.6428571428571429
 40
0.7142857142857143
 40
0.7142857142857143
 40
0.7142857142857143
 40
0.7142857142857143
 40
0.7857142857142857
 40
0.7857142857142857
 40
0.7857142857142857
 40
0.7857142857142857
 40
0.8571428571428571
 40
0.8571428571428571
 40
0.8571428571428571
 40
0.8571428571428571
 40
1.0
 40
1.0
 40
1.0
 40
1.0
 10
27.7017
 20
-3.4026
 30
0.0
 10
27.778
 20
-3.4033
 30
0.0
 10
27.8433
 20
-3.4149
 30
0.0
 10
27.8977
 20
-3.4382
 30
0.0
 10
27.8977
 20
-3.4382
 30
0.0
 10
27.952
 20
-3.4615
 30
0.0
 10
27.996
 20
-3.4932
 30
0.0
 10
28.0302
 20
-3.5326
 30
0.0
 10
28.0302
 20
-3.5326
 30
0.0
 10
28.0639
 20
-3.5721
 30
0.0
 10
28.0891
 20
-3.6161
 30
0.0
 10
28.1053
 20
-3.6646
 30
0.0
 10
28.1053
 20
-3.6646
 30
0.0
 10
28.1208
 20
-3.7131
 30
0.0
 10
28.1285
 20
-3.7629
 30
0.0
 10
28.1285
 20
-3.814
 30
0.0
 10
28.1285
 20
-3.814
 30
0.0
 10
28.1279
 20
-3.8903
 30
0.0
 10
28.1111
 20
-3.9582
 30
0.0
 10
28.0775
 20
-4.0177
 30
0.0
 10
28.0775
 20
-4.0177
 30
0.0
 10
28.0438
 20
-4.0778
 30
0.0
 10
27.9986
 20
-4.1289
 30
0.0
 10
27.9403
 20
-4.171
 30
0.0
 10
27.9403
 20
-4.171
 30
0.0
 10
27.8828
 20
-4.2137
 30
0.0
 10
27.8175
 20
-4.2473
 30
0.0
 10
27.7444
 20
-4.2719
 30
0.0
 10
27.7444
 20
-4.2719
 30
0.0
 10
27.6467
 20
-4.246
 30
0.0
 10
27.562
 20
-4.213
 30
0.0
 10
27.4896
 20
-4.1729
 30
0.0
 10
27.4896
 20
-4.1729
 30
0.0
 10
27.4171
 20
-4.1322
 30
0.0
 10
27.3609
 20
-4.0817
 30
0.0
 10
27.3214
 20
-4.0216
 30
0.0
 10
27.3214
 20
-4.0216
 30
0.0
 10
27.282
 20
-3.9614
 30
0.0
 10
27.2626
 20
-3.8896
 30
0.0
 10
27.2632
 20
-3.8062
 30
0.0
 10
27.2632
 20
-3.8062
 30
0.0
 10
27.2632
 20
-3.7325
 30
0.0
 10
27.28
 20
-3.6659
 30
0.0
 10
27.3136
 20
-3.6051
 30
0.0
 10
27.3136
 20
-3.6051
 30
0.0
 10
27.3473
 20
-3.5443
 30
0.0
 10
27.3971
 20
-3.4958
 30
0.0
 10
27.4624
 20
-3.4589
 30
0.0
 10
27.4624
 20
-3.4589
 30
0.0
 10
27.5271
 20
-3.422
 30
0.0
 10
27.6073
 20
-3.4033
 30
0.0
 10
27.7017
 20
-3.4026
 30
0.0
  0
SPLINE
  5
92
330
1F
100
AcDbEntity
  8
Ilustrace
 62
   250
370
    15
100
AcDbSpline
210
0.0
220
0.0
230
1.0
 70
    24
 71
     3
 72
     8
 73
     4
 74
     0
 42
0.0000000001
 43
0.0000000001
 40
0.0
 40
0.0
 40
0.0
 40
0.0
 40
1.0
 40
1.0
 40
1.0
 40
1.0
 10
43.0358
 20
-5.8015
 30
0.0
 10
43.0358
 20
-5.8015
 30
0.0
 10
43.0358
 20
-11.5121
 30
0.0
 10
43.0358
 20
-11.5121
 30
0.0
  0
SPLINE
  5
93
330
1F
100
AcDbEntity
  8
Ilustrace
 62
   250
370
    15
100
AcDbSpline
210
0.0
220
0.0
230
1.0
 70
    24
 71
     3
 72
     8
 73
     4
 74
     0
 42
0.0000000001
 43
0.0000000001
 40
0.0
 40
0.0
 40
0.0
 40
0.0
 40
1.0
 40
1.0
 40
1.0
 40
1.0
 10
8.3447
 20
-5.5617
 30
0.0
 10
8.3447
 20
-5.5617
 30
0.0
 10
8.3447
 20
-11.5343
 30
0.0
 10
8.3447
 20
-11.5343
 30
0.0
  0
SPLINE
  5
94
330
1F
100
AcDbEntity
  8
Ilustrace
  6
New Line1
 62
   250
370
    15
100
AcDbSpline
210
0.0
220
0.0
230
1.0
 70
    24
 71
     3
 72
     8
 73
     4
 74
     0
 42
0.0000000001
 43
0.0000000001
 40
0.0
 40
0.0
 40
0.0
 40
0.0
 40
1.0
 40
1.0
 40
1.0
 40
1.0
 10
-28.0315
 20
-0.8351
 30
0.0
 10
-28.0315
 20
-0.8351
 30
0.0
 10
-28.8624
 20
-2.7925
 30
0.0
 10
-28.8624
 20
-2.7925
 30
0.0
  0
SPLINE
  5
96
330
1F
100
AcDbEntity
  8
Ilustrace
  6
New Line2
 62
   250
370
    15
100
AcDbSpline
210
0.0
220
0.0
230
1.0
 70
    24
 71
     3
 72
     8
 73
     4
 74
     0
 42
0.0000000001
 43
0.0000000001
 40
0.0
 40
0.0
 40
0.0
 40
0.0
 40
1.0
 40
1.0
 40
1.0
 40
1.0
 10
-29.515
 20
-2.5154
 30
0.0
 10
-29.515
 20
-2.5154
 30
0.0
 10
-28.8624
 20
-2.7925
 30
0.0
 10
-28.8624
 20
-2.7925
 30
0.0
  0
SPLINE
  5
98
330
1F
100
AcDbEntity
  8
Ilustrace
  6
New Line3
 62
   250
370
    15
100
AcDbSpline
210
0.0
220
0.0
230
1.0
 70
    24
 71
     3
 72
     8
 73
     4
 74
     0
 42
0.0000000001
 43
0.0000000001
 40
0.0
 40
0.0
 40
0.0
 40
0.0
 40
1.0
 40
1.0
 40
1.0
 40
1.0
 10
-28.6843
 20
-0.5579
 30
0.0
 10
-28.6843
 20
-0.5579
 30
0.0
 10
-29.5152
 20
-2.5154
 30
0.0
 10
-29.5152
 20
-2.5154
 30
0.0
  0
SPLINE
  5
9A
330
1F
100
AcDbEntity
  8
Ilustrace
  6
New Line4
 62
   250
370
    15
100
AcDbSpline
210
0.0
220
0.0
230
1.0
 70
    24
 71
     3
 72
     8
 73
     4
 74
     0
 42
0.0000000001
 43
0.0000000001
 40
0.0
 40
0.0
 40
0.0
 40
0.0
 40
1.0
 40
1.0
 40
1.0
 40
1.0
 10
-28.0315
 20
-0.8351
 30
0.0
 10
-28.0315
 20
-0.8351
 30
0.0
 10
-28.6843
 20
-0.5579
 30
0.0
 10
-28.6843
 20
-0.5579
 30
0.0
  0
SPLINE
  5
9C
330
1F
100
AcDbEntity
  8
Ilustrace
  6
New Line5
 62
   250
370
    15
100
AcDbSpline
210
0.0
220
0.0
230
1.0
 70
    24
 71
     3
 72
     8
 73
     4
 74
     0
 42
0.0000000001
 43
0.0000000001
 40
0.0
 40
0.0
 40
0.0
 40
0.0
 40
1.0
 40
1.0
 40
1.0
 40
1.0
 10
-34.3354
 20
1.8411
 30
0.0
 10
-34.3354
 20
1.8411
 30
0.0
 10
-35.1664
 20
-0.1166
 30
0.0
 10
-35.1664
 20
-0.1166
 30
0.0
  0
SPLINE
  5
9E
330
1F
100
AcDbEntity
  8
Ilustrace
  6
New Line6
 62
   250
370
    15
100
AcDbSpline
210
0.0
220
0.0
230
1.0
 70
    24
 71
     3
 72
     8
 73
     4
 74
     0
 42
0.0000000001
 43
0.0000000001
 40
0.0
 40
0.0
 40
0.0
 40
0.0
 40
1.0
 40
1.0
 40
1.0
 40
1.0
 10
-35.8189
 20
0.1604
 30
0.0
 10
-35.8189
 20
0.1604
 30
0.0
 10
-35.1664
 20
-0.1166
 30
0.0
 10
-35.1664
 20
-0.1166
 30
0.0
  0
SPLINE
  5
A0
330
1F
100
AcDbEntity
  8
Ilustrace
  6
New Line7
 62
   250
370
    15
100
AcDbSpline
210
0.0
220
0.0
230
1.0
 70
    24
 71
     3
 72
     8
 73
     4
 74
     0
 42
0.0000000001
 43
0.0000000001
 40
0.0
 40
0.0
 40
0.0
 40
0.0
 40
1.0
 40
1.0
 40
1.0
 40
1.0
 10
-34.988
 20
2.1181
 30
0.0
 10
-34.988
 20
2.1181
 30
0.0
 10
-35.8189
 20
0.1604
 30
0.0
 10
-35.8189
 20
0.1604
 30
0.0
  0
SPLINE
  5
A2
330
1F
100
AcDbEntity
  8
Ilustrace
  6
New Line8
 62
   250
370
    15
100
AcDbSpline
210
0.0
220
0.0
230
1.0
 70
    11
 71
     3
 72
    28
 73
    24
 74
     0
 42
0.0000000001
 43
0.0000000001
 40
0.0
 40
0.0
 40
0.0
 40
0.0
 40
0.1428571428571428
 40
0.1428571428571428
 40
0.1428571428571428
 40
0.1428571428571428
 40
0.2857142857142857
 40
0.2857142857142857
 40
0.2857142857142857
 40
0.2857142857142857
 40
0.4285714285714285
 40
0.4285714285714285
 40
0.4285714285714285
 40
0.4285714285714285
 40
0.5714285714285714
 40
0.5714285714285714
 40
0.5714285714285714
 40
0.5714285714285714
 40
0.7142857142857143
 40
0.7142857142857143
 40
0.7142857142857143
 40
0.7142857142857143
 40
1.0
 40
1.0
 40
1.0
 40
1.0
 10
-38.4429
 20
3.1568
 30
0.0
 10
-38.3173
 20
3.4529
 30
0.0
 10
-38.0362
 20
3.5788
 30
0.0
 10
-37.7316
 20
3.4755
 30
0.0
 10
-37.7316
 20
3.4755
 30
0.0
 10
-37.634
 20
3.4252
 30
0.0
 10
-37.5522
 20
3.3675
 30
0.0
 10
-37.4919
 20
3.2733
 30
0.0
 10
-37.4919
 20
3.2733
 30
0.0
 10
-37.4487
 20
3.2063
 30
0.0
 10
-37.4211
 20
3.1299
 30
0.0
 10
-37.4115
 20
3.0507
 30
0.0
 10
-37.4115
 20
3.0507
 30
0.0
 10
-37.3493
 20
2.5434
 30
0.0
 10
-38.0015
 20
2.2509
 30
0.0
 10
-38.3388
 20
2.6351
 30
0.0
 10
-38.3388
 20
2.6351
 30
0.0
 10
-38.3914
 20
2.695
 30
0.0
 10
-38.43
 20
2.7665
 30
0.0
 10
-38.4515
 20
2.8433
 30
0.0
 10
-38.4515
 20
2.8433
 30
0.0
 10
-38.4814
 20
2.951
 30
0.0
 10
-38.4701
 20
3.0504
 30
0.0
 10
-38.4429
 20
3.1568
 30
0.0
  0
SPLINE
  5
A4
330
1F
100
AcDbEntity
  8
Ilustrace
  6
New Line9
 62
   250
370
    15
100
AcDbSpline
210
0.0
220
0.0
230
1.0
 70
    24
 71
     3
 72
     8
 73
     4
 74
     0
 42
0.0000000001
 43
0.0000000001
 40
0.0
 40
0.0
 40
0.0
 40
0.0
 40
1.0
 40
1.0
 40
1.0
 40
1.0
 10
-28.8624
 20
-2.7925
 30
0.0
 10
-28.8624
 20
-2.7925
 30
0.0
 10
-26.9165
 20
-3.6184
 30
0.0
 10
-26.9165
 20
-3.6184
 30
0.0
  0
SPLINE
  5
A6
330
1F
100
AcDbEntity
  8
Ilustrace
  6
New Line10
 62
   250
370
    15
100
AcDbSpline
210
0.0
220
0.0
230
1.0
 70
    24
 71
     3
 72
     8
 73
     4
 74
     0
 42
0.0000000001
 43
0.0000000001
 40
0.0
 40
0.0
 40
0.0
 40
0.0
 40
1.0
 40
1.0
 40
1.0
 40
1.0
 10
-42.1149
 20
2.8329
 30
0.0
 10
-42.1149
 20
2.8329
 30
0.0
 10
-42.6014
 20
3.0394
 30
0.0
 10
-42.6014
 20
3.0394
 30
0.0
  0
SPLINE
  5
A8
330
1F
100
AcDbEntity
  8
Ilustrace
  6
New Line11
 62
   250
370
    15
100
AcDbSpline
210
0.0
220
0.0
230
1.0
 70
    24
 71
     3
 72
     8
 73
     4
 74
     0
 42
0.0000000001
 43
0.0000000001
 40
0.0
 40
0.0
 40
0.0
 40
0.0
 40
1.0
 40
1.0
 40
1.0
 40
1.0
 10
-35.1664
 20
-0.1166
 30
0.0
 10
-35.1664
 20
-0.1166
 30
0.0
 10
-29.515
 20
-2.5154
 30
0.0
 10
-29.515
 20
-2.5154
 30
0.0
  0
SPLINE
  5
AA
330
1F
100
AcDbEntity
  8
Ilustrace
  6
New Line12
 62
   250
370
    15
100
AcDbSpline
210
0.0
220
0.0
230
1.0
 70
    24
 71
     3
 72
     8
 73
     4
 74
     0
 42
0.0000000001
 43
0.0000000001
 40
0.0
 40
0.0
 40
0.0
 40
0.0
 40
1.0
 40
1.0
 40
1.0
 40
1.0
 10
-38.1424
 20
1.1467
 30
0.0
 10
-38.1424
 20
1.1467
 30
0.0
 10
-35.8189
 20
0.1604
 30
0.0
 10
-35.8189
 20
0.1604
 30
0.0
  0
SPLINE
  5
AC
330
1F
100
AcDbEntity
  8
Ilustrace
  6
New Line13
 62
   250
370
    15
100
AcDbSpline
210
0.0
220
0.0
230
1.0
 70
    24
 71
     3
 72
     8
 73
     4
 74
     0
 42
0.0000000001
 43
0.0000000001
 40
0.0
 40
0.0
 40
0.0
 40
0.0
 40
1.0
 40
1.0
 40
1.0
 40
1.0
 10
-37.7961
 20
1.9625
 30
0.0
 10
-37.7961
 20
1.9625
 30
0.0
 10
-38.1424
 20
1.1467
 30
0.0
 10
-38.1424
 20
1.1467
 30
0.0
  0
SPLINE
  5
AE
330
1F
100
AcDbEntity
  8
Ilustrace
  6
New Line14
 62
   250
370
    15
100
AcDbSpline
210
0.0
220
0.0
230
1.0
 70
    24
 71
     3
 72
     8
 73
     4
 74
     0
 42
0.0000000001
 43
0.0000000001
 40
0.0
 40
0.0
 40
0.0
 40
0.0
 40
1.0
 40
1.0
 40
1.0
 40
1.0
 10
-38.2856
 20
2.1703
 30
0.0
 10
-38.2856
 20
2.1703
 30
0.0
 10
-37.7961
 20
1.9625
 30
0.0
 10
-37.7961
 20
1.9625
 30
0.0
  0
SPLINE
  5
B0
330
1F
100
AcDbEntity
  8
Ilustrace
  6
New Line15
 62
   250
370
    15
100
AcDbSpline
210
0.0
220
0.0
230
1.0
 70
    24
 71
     3
 72
     8
 73
     4
 74
     0
 42
0.0000000001
 43
0.0000000001
 40
0.0
 40
0.0
 40
0.0
 40
0.0
 40
1.0
 40
1.0
 40
1.0
 40
1.0
 10
-38.2856
 20
2.1703
 30
0.0
 10
-38.2856
 20
2.1703
 30
0.0
 10
-38.6319
 20
1.3545
 30
0.0
 10
-38.6319
 20
1.3545
 30
0.0
  0
SPLINE
  5
B2
330
1F
100
AcDbEntity
  8
Ilustrace
  6
New Line16
 62
   250
370
    15
100
AcDbSpline
210
0.0
220
0.0
230
1.0
 70
    24
 71
     3
 72
     8
 73
     4
 74
     0
 42
0.0000000001
 43
0.0000000001
 40
0.0
 40
0.0
 40
0.0
 40
0.0
 40
1.0
 40
1.0
 40
1.0
 40
1.0
 10
-39.9287
 20
1.9049
 30
0.0
 10
-39.9287
 20
1.9049
 30
0.0
 10
-38.6319
 20
1.3545
 30
0.0
 10
-38.6319
 20
1.3545
 30
0.0
  0
SPLINE
  5
B4
330
1F
100
AcDbEntity
  8
Ilustrace
  6
New Line17
 62
   250
370
    15
100
AcDbSpline
210
0.0
220
0.0
230
1.0
 70
    24
 71
     3
 72
     8
 73
     4
 74
     0
 42
0.0000000001
 43
0.0000000001
 40
0.0
 40
0.0
 40
0.0
 40
0.0
 40
1.0
 40
1.0
 40
1.0
 40
1.0
 10
-39.2279
 20
2.2002
 30
0.0
 10
-39.2279
 20
2.2002
 30
0.0
 10
-39.3526
 20
1.6604
 30
0.0
 10
-39.3526
 20
1.6604
 30
0.0
  0
SPLINE
  5
B6
330
1F
100
AcDbEntity
  8
Ilustrace
  6
New Line18
 62
   250
370
    15
100
AcDbSpline
210
0.0
220
0.0
230
1.0
 70
     8
 71
     3
 72
    12
 73
     8
 74
     0
 42
0.0000000001
 43
0.0000000001
 40
0.0
 40
0.0
 40
0.0
 40
0.0
 40
0.3333333333333333
 40
0.3333333333333333
 40
0.3333333333333333
 40
0.3333333333333333
 40
1.0
 40
1.0
 40
1.0
 40
1.0
 10
-42.6014
 20
3.0394
 30
0.0
 10
-42.6911
 20
2.8178
 30
0.0
 10
-42.8709
 20
2.5353
 30
0.0
 10
-42.6598
 20
2.3225
 30
0.0
 10
-42.6598
 20
2.3225
 30
0.0
 10
-42.6163
 20
2.2787
 30
0.0
 10
-42.5999
 20
2.275
 30
0.0
 10
-42.5465
 20
2.2457
 30
0.0
  0
SPLINE
  5
B8
330
1F
100
AcDbEntity
  8
Ilustrace
  6
New Line19
 62
   250
370
    15
100
AcDbSpline
210
0.0
220
0.0
230
1.0
 70
     8
 71
     3
 72
    12
 73
     8
 74
     0
 42
0.0000000001
 43
0.0000000001
 40
0.0
 40
0.0
 40
0.0
 40
0.0
 40
0.3333333333333333
 40
0.3333333333333333
 40
0.3333333333333333
 40
0.3333333333333333
 40
1.0
 40
1.0
 40
1.0
 40
1.0
 10
-42.5465
 20
2.2457
 30
0.0
 10
-42.5465
 20
2.2457
 30
0.0
 10
-41.8938
 20
1.9687
 30
0.0
 10
-41.8938
 20
1.9687
 30
0.0
 10
-41.8938
 20
1.9687
 30
0.0
 10
-41.8938
 20
1.9687
 30
0.0
 10
-28.1784
 20
-3.8532
 30
0.0
 10
-28.1784
 20
-3.8532
 30
0.0
  0
SPLINE
  5
BA
330
1F
100
AcDbEntity
  8
Ilustrace
  6
New Line20
 62
   250
370
    15
100
AcDbSpline
210
0.0
220
0.0
230
1.0
 70
     8
 71
     3
 72
     8
 73
     4
 74
     0
 42
0.0000000001
 43
0.0000000001
 40
0.0
 40
0.0
 40
0.0
 40
0.0
 40
1.0
 40
1.0
 40
1.0
 40
1.0
 10
-28.1784
 20
-3.8532
 30
0.0
 10
-27.9401
 20
-3.9543
 30
0.0
 10
-27.2779
 20
-4.4105
 30
0.0
 10
-27.0632
 20
-3.948
 30
0.0
  0
SPLINE
  5
BC
330
1F
100
AcDbEntity
  8
Ilustrace
  6
New Line21
 62
   250
370
    15
100
AcDbSpline
210
0.0
220
0.0
230
1.0
 70
    24
 71
     3
 72
     8
 73
     4
 74
     0
 42
0.0000000001
 43
0.0000000001
 40
0.0
 40
0.0
 40
0.0
 40
0.0
 40
1.0
 40
1.0
 40
1.0
 40
1.0
 10
-27.0632
 20
-3.948
 30
0.0
 10
-27.0632
 20
-3.948
 30
0.0
 10
-26.9165
 20
-3.6184
 30
0.0
 10
-26.9165
 20
-3.6184
 30
0.0
  0
SPLINE
  5
BE
330
1F
100
AcDbEntity
  8
Ilustrace
  6
New Line22
 62
   250
370
    15
100
AcDbSpline
210
0.0
220
0.0
230
1.0
 70
     8
 71
     3
 72
    12
 73
     8
 74
     0
 42
0.0000000001
 43
0.0000000001
 40
0.0
 40
0.0
 40
0.0
 40
0.0
 40
0.3333333333333333
 40
0.3333333333333333
 40
0.3333333333333333
 40
0.3333333333333333
 40
1.0
 40
1.0
 40
1.0
 40
1.0
 10
-33.2078
 20
-2.8842
 30
0.0
 10
-32.2728
 20
-3.1613
 30
0.0
 10
-31.2711
 20
-3.1661
 30
0.0
 10
-30.3072
 20
-3.2379
 30
0.0
 10
-30.3072
 20
-3.2379
 30
0.0
 10
-29.9796
 20
-3.2624
 30
0.0
 10
-29.6788
 20
-3.2447
 30
0.0
 10
-29.3756
 20
-3.345
 30
0.0
  0
SPLINE
  5
C0
330
1F
100
AcDbEntity
  8
Ilustrace
  6
New Line23
 62
   250
370
    15
100
AcDbSpline
210
0.0
220
0.0
230
1.0
 70
     8
 71
     3
 72
    12
 73
     8
 74
     0
 42
0.0000000001
 43
0.0000000001
 40
0.0
 40
0.0
 40
0.0
 40
0.0
 40
0.3333333333333333
 40
0.3333333333333333
 40
0.3333333333333333
 40
0.3333333333333333
 40
1.0
 40
1.0
 40
1.0
 40
1.0
 10
-35.4794
 20
-1.7874
 30
0.0
 10
-35.0185
 20
-2.1056
 30
0.0
 10
-34.5491
 20
-2.37
 30
0.0
 10
-34.0376
 20
-2.5976
 30
0.0
 10
-34.0376
 20
-2.5976
 30
0.0
 10
-33.5911
 20
-2.7709
 30
0.0
 10
-33.1508
 20
-2.9075
 30
0.0
 10
-32.6833
 20
-3.008
 30
0.0
  0
SPLINE
  5
C2
330
1F
100
AcDbEntity
  8
Ilustrace
  6
New Line24
 62
   250
370
    15
100
AcDbSpline
210
0.0
220
0.0
230
1.0
 70
     8
 71
     3
 72
    12
 73
     8
 74
     0
 42
0.0000000001
 43
0.0000000001
 40
0.0
 40
0.0
 40
0.0
 40
0.0
 40
0.3333333333333333
 40
0.3333333333333333
 40
0.3333333333333333
 40
0.3333333333333333
 40
1.0
 40
1.0
 40
1.0
 40
1.0
 10
-35.192
 20
-1.9859
 30
0.0
 10
-35.7025
 20
-1.6333
 30
0.0
 10
-36.1616
 20
-1.2487
 30
0.0
 10
-36.582
 20
-0.7933
 30
0.0
 10
-36.582
 20
-0.7933
 30
0.0
 10
-36.8394
 20
-0.5146
 30
0.0
 10
-37.0176
 20
-0.1299
 30
0.0
 10
-37.364
 20
0.0459
 30
0.0
  0
SPLINE
  5
C4
330
1F
100
AcDbEntity
  8
Ilustrace
  6
New Line25
 62
   250
370
    15
100
AcDbSpline
210
0.0
220
0.0
230
1.0
 70
     8
 71
     3
 72
    12
 73
     8
 74
     0
 42
0.0000000001
 43
0.0000000001
 40
0.0
 40
0.0
 40
0.0
 40
0.0
 40
0.3333333333333333
 40
0.3333333333333333
 40
0.3333333333333333
 40
0.3333333333333333
 40
1.0
 40
1.0
 40
1.0
 40
1.0
 10
-37.0065
 20
3.7979
 30
0.0
 10
-36.9392
 20
3.6842
 30
0.0
 10
-36.9156
 20
3.6581
 30
0.0
 10
-36.8727
 20
3.5318
 30
0.0
 10
-36.8727
 20
3.5318
 30
0.0
 10
-36.7289
 20
3.1092
 30
0.0
 10
-36.9077
 20
2.6606
 30
0.0
 10
-37.002
 20
2.2512
 30
0.0
  0
SPLINE
  5
C6
330
1F
100
AcDbEntity
  8
Ilustrace
  6
New Line26
 62
   250
370
    15
100
AcDbSpline
210
0.0
220
0.0
230
1.0
 70
     8
 71
     3
 72
    12
 73
     8
 74
     0
 42
0.0000000001
 43
0.0000000001
 40
0.0
 40
0.0
 40
0.0
 40
0.0
 40
0.3333333333333333
 40
0.3333333333333333
 40
0.3333333333333333
 40
0.3333333333333333
 40
1.0
 40
1.0
 40
1.0
 40
1.0
 10
-37.002
 20
2.2512
 30
0.0
 10
-37.002
 20
2.2512
 30
0.0
 10
-37.1764
 20
1.495
 30
0.0
 10
-37.1764
 20
1.495
 30
0.0
 10
-37.1764
 20
1.495
 30
0.0
 10
-37.1764
 20
1.495
 30
0.0
 10
-37.3356
 20
0.8042
 30
0.0
 10
-37.3356
 20
0.8042
 30
0.0
  0
SPLINE
  5
C8
330
1F
100
AcDbEntity
  8
Ilustrace
  6
New Line27
 62
   250
370
    15
100
AcDbSpline
210
0.0
220
0.0
230
1.0
 70
     8
 71
     3
 72
     8
 73
     4
 74
     0
 42
0.0000000001
 43
0.0000000001
 40
0.0
 40
0.0
 40
0.0
 40
0.0
 40
1.0
 40
1.0
 40
1.0
 40
1.0
 10
-37.0088
 20
3.7927
 30
0.0
 10
-37.2653
 20
4.1139
 30
0.0
 10
-37.5793
 20
4.2612
 30
0.0
 10
-37.99
 20
4.2533
 30
0.0
  0
SPLINE
  5
CA
330
1F
100
AcDbEntity
  8
Ilustrace
  6
New Line28
 62
   250
370
    15
100
AcDbSpline
210
0.0
220
0.0
230
1.0
 70
     8
 71
     3
 72
     8
 73
     4
 74
     0
 42
0.0000000001
 43
0.0000000001
 40
0.0
 40
0.0
 40
0.0
 40
0.0
 40
1.0
 40
1.0
 40
1.0
 40
1.0
 10
-37.9877
 20
4.2586
 30
0.0
 10
-38.4068
 20
4.1922
 30
0.0
 10
-38.7836
 20
3.9523
 30
0.0
 10
-38.9136
 20
3.527
 30
0.0
  0
SPLINE
  5
CC
330
1F
100
AcDbEntity
  8
Ilustrace
  6
New Line29
 62
   250
370
    15
100
AcDbSpline
210
0.0
220
0.0
230
1.0
 70
    11
 71
     3
 72
    32
 73
    28
 74
     0
 42
0.0000000001
 43
0.0000000001
 40
0.0
 40
0.0
 40
0.0
 40
0.0
 40
0.125
 40
0.125
 40
0.125
 40
0.125
 40
0.25
 40
0.25
 40
0.25
 40
0.25
 40
0.375
 40
0.375
 40
0.375
 40
0.375
 40
0.5
 40
0.5
 40
0.5
 40
0.5
 40
0.625
 40
0.625
 40
0.625
 40
0.625
 40
0.75
 40
0.75
 40
0.75
 40
0.75
 40
1.0
 40
1.0
 40
1.0
 40
1.0
 10
-38.464
 20
3.2088
 30
0.0
 10
-38.3082
 20
3.502
 30
0.0
 10
-38.0322
 20
3.6134
 30
0.0
 10
-37.7166
 20
3.5108
 30
0.0
 10
-37.7166
 20
3.5108
 30
0.0
 10
-37.6249
 20
3.4621
 30
0.0
 10
-37.5478
 20
3.4137
 30
0.0
 10
-37.484
 20
3.3292
 30
0.0
 10
-37.484
 20
3.3292
 30
0.0
 10
-37.4439
 20
3.2762
 30
0.0
 10
-37.4135
 20
3.2162
 30
0.0
 10
-37.394
 20
3.1528
 30
0.0
 10
-37.394
 20
3.1528
 30
0.0
 10
-37.2419
 20
2.6548
 30
0.0
 10
-37.8131
 20
2.2248
 30
0.0
 10
-38.2497
 20
2.508
 30
0.0
 10
-38.2497
 20
2.508
 30
0.0
 10
-38.3054
 20
2.5445
 30
0.0
 10
-38.3544
 20
2.5899
 30
0.0
 10
-38.3946
 20
2.6431
 30
0.0
 10
-38.3946
 20
2.6431
 30
0.0
 10
-38.4545
 20
2.7227
 30
0.0
 10
-38.4928
 20
2.8178
 30
0.0
 10
-38.5048
 20
2.9166
 30
0.0
 10
-38.5048
 20
2.9166
 30
0.0
 10
-38.518
 20
3.0215
 30
0.0
 10
-38.4959
 20
3.1101
 30
0.0
 10
-38.464
 20
3.2088
 30
0.0
  0
SPLINE
  5
CE
330
1F
100
AcDbEntity
  8
Ilustrace
  6
New Line30
 62
   250
370
    15
100
AcDbSpline
210
0.0
220
0.0
230
1.0
 70
     8
 71
     3
 72
    16
 73
    12
 74
     0
 42
0.0000000001
 43
0.0000000001
 40
0.0
 40
0.0
 40
0.0
 40
0.0
 40
0.25
 40
0.25
 40
0.25
 40
0.25
 40
0.5
 40
0.5
 40
0.5
 40
0.5
 40
1.0
 40
1.0
 40
1.0
 40
1.0
 10
-38.8222
 20
3.9436
 30
0.0
 10
-38.8666
 20
3.6146
 30
0.0
 10
-38.9683
 20
3.2902
 30
0.0
 10
-39.0434
 20
2.9656
 30
0.0
 10
-39.0434
 20
2.9656
 30
0.0
 10
-39.1179
 20
2.6425
 30
0.0
 10
-39.1257
 20
2.0632
 30
0.0
 10
-39.5198
 20
1.9021
 30
0.0
 10
-39.5198
 20
1.9021
 30
0.0
 10
-39.8666
 20
1.7604
 30
0.0
 10
-40.3137
 20
2.0683
 30
0.0
 10
-40.5813
 20
2.1819
 30
0.0
  0
SPLINE
  5
D0
330
1F
100
AcDbEntity
  8
Ilustrace
  6
New Line31
 62
   250
370
    15
100
AcDbSpline
210
0.0
220
0.0
230
1.0
 70
    24
 71
     3
 72
     8
 73
     4
 74
     0
 42
0.0000000001
 43
0.0000000001
 40
0.0
 40
0.0
 40
0.0
 40
0.0
 40
1.0
 40
1.0
 40
1.0
 40
1.0
 10
-40.5813
 20
2.1819
 30
0.0
 10
-40.5813
 20
2.1819
 30
0.0
 10
-41.4623
 20
2.5559
 30
0.0
 10
-41.4623
 20
2.5559
 30
0.0
  0
SPLINE
  5
D2
330
1F
100
AcDbEntity
  8
Ilustrace
  6
New Line32
 62
   250
370
    15
100
AcDbSpline
210
0.0
220
0.0
230
1.0
 70
     8
 71
     3
 72
    12
 73
     8
 74
     0
 42
0.0000000001
 43
0.0000000001
 40
0.0
 40
0.0
 40
0.0
 40
0.0
 40
0.3333333333333333
 40
0.3333333333333333
 40
0.3333333333333333
 40
0.3333333333333333
 40
1.0
 40
1.0
 40
1.0
 40
1.0
 10
-41.4623
 20
2.5559
 30
0.0
 10
-41.8068
 20
2.7021
 30
0.0
 10
-42.4613
 20
2.8307
 30
0.0
 10
-42.4384
 20
3.344
 30
0.0
 10
-42.4384
 20
3.344
 30
0.0
 10
-42.4345
 20
3.4327
 30
0.0
 10
-42.4223
 20
3.4504
 30
0.0
 10
-42.3948
 20
3.5344
 30
0.0
  0
SPLINE
  5
D4
330
1F
100
AcDbEntity
  8
Ilustrace
  6
New Line33
 62
   250
370
    15
100
AcDbSpline
210
0.0
220
0.0
230
1.0
 70
     8
 71
     3
 72
    16
 73
    12
 74
     0
 42
0.0000000001
 43
0.0000000001
 40
0.0
 40
0.0
 40
0.0
 40
0.0
 40
0.25
 40
0.25
 40
0.25
 40
0.25
 40
0.5
 40
0.5
 40
0.5
 40
0.5
 40
1.0
 40
1.0
 40
1.0
 40
1.0
 10
-39.3642
 20
7.6011
 30
0.0
 10
-39.5351
 20
7.7339
 30
0.0
 10
-39.7248
 20
7.7919
 30
0.0
 10
-39.9322
 20
7.8757
 30
0.0
 10
-39.9322
 20
7.8757
 30
0.0
 10
-39.9992
 20
7.9028
 30
0.0
 10
-40.0505
 20
7.9141
 30
0.0
 10
-40.1221
 20
7.9177
 30
0.0
 10
-40.1221
 20
7.9177
 30
0.0
 10
-40.6262
 20
7.9435
 30
0.0
 10
-40.7669
 20
7.2779
 30
0.0
 10
-40.9103
 20
6.9481
 30
0.0
  0
SPLINE
  5
D6
330
1F
100
AcDbEntity
  8
Ilustrace
  6
New Line34
 62
   250
370
    15
100
AcDbSpline
210
0.0
220
0.0
230
1.0
 70
     8
 71
     3
 72
    16
 73
    12
 74
     0
 42
0.0000000001
 43
0.0000000001
 40
0.0
 40
0.0
 40
0.0
 40
0.0
 40
0.25
 40
0.25
 40
0.25
 40
0.25
 40
0.5
 40
0.5
 40
0.5
 40
0.5
 40
1.0
 40
1.0
 40
1.0
 40
1.0
 10
-40.9103
 20
6.9481
 30
0.0
 10
-40.9103
 20
6.9481
 30
0.0
 10
-42.1121
 20
4.1845
 30
0.0
 10
-42.1121
 20
4.1845
 30
0.0
 10
-42.1121
 20
4.1845
 30
0.0
 10
-42.1121
 20
4.1845
 30
0.0
 10
-42.3948
 20
3.5344
 30
0.0
 10
-42.3948
 20
3.5344
 30
0.0
 10
-42.3948
 20
3.5344
 30
0.0
 10
-42.3948
 20
3.5344
 30
0.0
 10
-42.4245
 20
3.4452
 30
0.0
 10
-42.4245
 20
3.4452
 30
0.0
  0
SPLINE
  5
D8
330
1F
100
AcDbEntity
  8
Ilustrace
  6
New Line35
 62
   250
370
    15
100
AcDbSpline
210
0.0
220
0.0
230
1.0
 70
     8
 71
     3
 72
     8
 73
     4
 74
     0
 42
0.0000000001
 43
0.0000000001
 40
0.0
 40
0.0
 40
0.0
 40
0.0
 40
1.0
 40
1.0
 40
1.0
 40
1.0
 10
-39.3359
 20
7.5947
 30
0.0
 10
-39.3109
 20
7.5352
 30
0.0
 10
-39.2067
 20
7.3528
 30
0.0
 10
-39.1962
 20
7.2723
 30
0.0
  0
SPLINE
  5
DA
330
1F
100
AcDbEntity
  8
Ilustrace
  6
New Line36
 62
   250
370
    15
100
AcDbSpline
210
0.0
220
0.0
230
1.0
 70
     8
 71
     3
 72
    12
 73
     8
 74
     0
 42
0.0000000001
 43
0.0000000001
 40
0.0
 40
0.0
 40
0.0
 40
0.0
 40
0.3333333333333333
 40
0.3333333333333333
 40
0.3333333333333333
 40
0.3333333333333333
 40
1.0
 40
1.0
 40
1.0
 40
1.0
 10
-39.1962
 20
7.2723
 30
0.0
 10
-39.1962
 20
7.2723
 30
0.0
 10
-39.1129
 20
6.5681
 30
0.0
 10
-39.1129
 20
6.5681
 30
0.0
 10
-39.1129
 20
6.5681
 30
0.0
 10
-39.1129
 20
6.5681
 30
0.0
 10
-38.9019
 20
4.7811
 30
0.0
 10
-38.9019
 20
4.7811
 30
0.0
  0
SPLINE
  5
DC
330
1F
100
AcDbEntity
  8
Ilustrace
  6
New Line37
 62
   250
370
    15
100
AcDbSpline
210
0.0
220
0.0
230
1.0
 70
     8
 71
     3
 72
     8
 73
     4
 74
     0
 42
0.0000000001
 43
0.0000000001
 40
0.0
 40
0.0
 40
0.0
 40
0.0
 40
1.0
 40
1.0
 40
1.0
 40
1.0
 10
-38.9019
 20
4.7811
 30
0.0
 10
-38.8676
 20
4.4903
 30
0.0
 10
-38.7853
 20
4.1894
 30
0.0
 10
-38.8289
 20
3.895
 30
0.0
  0
SPLINE
  5
DE
330
1F
100
AcDbEntity
  8
Ilustrace
  6
New Line38
 62
   250
370
    15
100
AcDbSpline
210
0.0
220
0.0
230
1.0
 70
    24
 71
     3
 72
     8
 73
     4
 74
     0
 42
0.0000000001
 43
0.0000000001
 40
0.0
 40
0.0
 40
0.0
 40
0.0
 40
1.0
 40
1.0
 40
1.0
 40
1.0
 10
-34.3354
 20
1.8411
 30
0.0
 10
-34.3354
 20
1.8411
 30
0.0
 10
-34.988
 20
2.1181
 30
0.0
 10
-34.988
 20
2.1181
 30
0.0
  0
SPLINE
  5
E0
330
1F
100
AcDbEntity
  8
Ilustrace
 62
   251
100
AcDbSpline
210
0.0
220
0.0
230
1.0
 70
    11
 71
     3
 72
    20
 73
    16
 74
     0
 42
0.0000000001
 43
0.0000000001
 40
0.0
 40
0.0
 40
0.0
 40
0.0
 40
0.2
 40
0.2
 40
0.2
 40
0.2
 40
0.4
 40
0.4
 40
0.4
 40
0.4
 40
0.6
 40
0.6
 40
0.6
 40
0.6
 40
1.0
 40
1.0
 40
1.0
 40
1.0
 10
8.5041
 20
21.8461
 30
0.0
 10
8.6982
 20
21.8461
 30
0.0
 10
8.8555
 20
21.6808
 30
0.0
 10
8.8555
 20
21.4768
 30
0.0
 10
8.8555
 20
21.4768
 30
0.0
 10
8.8555
 20
21.2728
 30
0.0
 10
8.6982
 20
21.1075
 30
0.0
 10
8.5041
 20
21.1075
 30
0.0
 10
8.5041
 20
21.1075
 30
0.0
 10
8.31
 20
21.1075
 30
0.0
 10
8.1527
 20
21.2728
 30
0.0
 10
8.1527
 20
21.4768
 30
0.0
 10
8.1527
 20
21.4768
 30
0.0
 10
8.1527
 20
21.6808
 30
0.0
 10
8.31
 20
21.8461
 30
0.0
 10
8.5041
 20
21.8461
 30
0.0
  0
SPLINE
  5
E1
330
1F
100
AcDbEntity
  8
Ilustrace
 62
   251
100
AcDbSpline
210
0.0
220
0.0
230
1.0
 70
    11
 71
     3
 72
    20
 73
    16
 74
     0
 42
0.0000000001
 43
0.0000000001
 40
0.0
 40
0.0
 40
0.0
 40
0.0
 40
0.2
 40
0.2
 40
0.2
 40
0.2
 40
0.4
 40
0.4
 40
0.4
 40
0.4
 40
0.6
 40
0.6
 40
0.6
 40
0.6
 40
1.0
 40
1.0
 40
1.0
 40
1.0
 10
42.9165
 20
21.8267
 30
0.0
 10
43.1106
 20
21.8267
 30
0.0
 10
43.2679
 20
21.6614
 30
0.0
 10
43.2679
 20
21.4574
 30
0.0
 10
43.2679
 20
21.4574
 30
0.0
 10
43.2679
 20
21.2534
 30
0.0
 10
43.1106
 20
21.0881
 30
0.0
 10
42.9165
 20
21.0881
 30
0.0
 10
42.9165
 20
21.0881
 30
0.0
 10
42.7224
 20
21.0881
 30
0.0
 10
42.5651
 20
21.2534
 30
0.0
 10
42.5651
 20
21.4574
 30
0.0
 10
42.5651
 20
21.4574
 30
0.0
 10
42.5651
 20
21.6614
 30
0.0
 10
42.7224
 20
21.8267
 30
0.0
 10
42.9165
 20
21.8267
 30
0.0
  0
SPLINE
  5
E2
330
1F
100
AcDbEntity
  8
Ilustrace
 62
   250
370
    30
100
AcDbSpline
210
0.0
220
0.0
230
1.0
 70
    11
 71
     3
 72
    20
 73
    16
 74
     0
 42
0.0000000001
 43
0.0000000001
 40
0.0
 40
0.0
 40
0.0
 40
0.0
 40
0.2
 40
0.2
 40
0.2
 40
0.2
 40
0.4
 40
0.4
 40
0.4
 40
0.4
 40
0.6
 40
0.6
 40
0.6
 40
0.6
 40
1.0
 40
1.0
 40
1.0
 40
1.0
 10
42.8961
 20
21.1444
 30
0.0
 10
43.0618
 20
21.1444
 30
0.0
 10
43.1961
 20
21.2787
 30
0.0
 10
43.1961
 20
21.4444
 30
0.0
 10
43.1961
 20
21.4444
 30
0.0
 10
43.1961
 20
21.6101
 30
0.0
 10
43.0618
 20
21.7444
 30
0.0
 10
42.8961
 20
21.7444
 30
0.0
 10
42.8961
 20
21.7444
 30
0.0
 10
42.7304
 20
21.7444
 30
0.0
 10
42.5961
 20
21.6101
 30
0.0
 10
42.5961
 20
21.4444
 30
0.0
 10
42.5961
 20
21.4444
 30
0.0
 10
42.5961
 20
21.2787
 30
0.0
 10
42.7304
 20
21.1444
 30
0.0
 10
42.8961
 20
21.1444
 30
0.0
  0
SPLINE
  5
E3
330
1F
100
AcDbEntity
  8
Ilustrace
 62
   250
370
    30
100
AcDbSpline
210
0.0
220
0.0
230
1.0
 70
    11
 71
     3
 72
    20
 73
    16
 74
     0
 42
0.0000000001
 43
0.0000000001
 40
0.0
 40
0.0
 40
0.0
 40
0.0
 40
0.2
 40
0.2
 40
0.2
 40
0.2
 40
0.4
 40
0.4
 40
0.4
 40
0.4
 40
0.6
 40
0.6
 40
0.6
 40
0.6
 40
1.0
 40
1.0
 40
1.0
 40
1.0
 10
8.517
 20
21.183
 30
0.0
 10
8.6827
 20
21.183
 30
0.0
 10
8.817
 20
21.3173
 30
0.0
 10
8.817
 20
21.483
 30
0.0
 10
8.817
 20
21.483
 30
0.0
 10
8.817
 20
21.6487
 30
0.0
 10
8.6827
 20
21.783
 30
0.0
 10
8.517
 20
21.783
 30
0.0
 10
8.517
 20
21.783
 30
0.0
 10
8.3513
 20
21.783
 30
0.0
 10
8.217
 20
21.6487
 30
0.0
 10
8.217
 20
21.483
 30
0.0
 10
8.217
 20
21.483
 30
0.0
 10
8.217
 20
21.3173
 30
0.0
 10
8.3513
 20
21.183
 30
0.0
 10
8.517
 20
21.183
 30
0.0
  0
SPLINE
  5
E4
330
1F
100
AcDbEntity
  8
Ilustrace
 62
   250
370
    30
100
AcDbSpline
210
0.0
220
0.0
230
1.0
 70
    24
 71
     3
 72
     8
 73
     4
 74
     0
 42
0.0000000001
 43
0.0000000001
 40
0.0
 40
0.0
 40
0.0
 40
0.0
 40
1.0
 40
1.0
 40
1.0
 40
1.0
 10
8.4108
 20
21.9337
 30
0.0
 10
8.4108
 20
21.9337
 30
0.0
 10
8.3489
 20
22.6427
 30
0.0
 10
8.3489
 20
22.6427
 30
0.0
  0
SPLINE
  5
E5
330
1F
100
AcDbEntity
  8
Ilustrace
 62
   250
370
    30
100
AcDbSpline
210
0.0
220
0.0
230
1.0
 70
    24
 71
     3
 72
     8
 73
     4
 74
     0
 42
0.0000000001
 43
0.0000000001
 40
0.0
 40
0.0
 40
0.0
 40
0.0
 40
1.0
 40
1.0
 40
1.0
 40
1.0
 10
8.7033
 20
22.6427
 30
0.0
 10
8.7033
 20
22.6427
 30
0.0
 10
8.7033
 20
23.4225
 30
0.0
 10
8.7033
 20
23.4225
 30
0.0
  0
SPLINE
  5
E6
330
1F
100
AcDbEntity
  8
Ilustrace
 62
   250
370
    30
100
AcDbSpline
210
0.0
220
0.0
230
1.0
 70
    24
 71
     3
 72
     8
 73
     4
 74
     0
 42
0.0000000001
 43
0.0000000001
 40
0.0
 40
0.0
 40
0.0
 40
0.0
 40
1.0
 40
1.0
 40
1.0
 40
1.0
 10
9.4123
 20
23.4225
 30
0.0
 10
9.4123
 20
23.4225
 30
0.0
 10
8.7033
 20
23.4225
 30
0.0
 10
8.7033
 20
23.4225
 30
0.0
  0
SPLINE
  5
E7
330
1F
100
AcDbEntity
  8
Ilustrace
 62
   250
370
    30
100
AcDbSpline
210
0.0
220
0.0
230
1.0
 70
    24
 71
     3
 72
     8
 73
     4
 74
     0
 42
0.0000000001
 43
0.0000000001
 40
0.0
 40
0.0
 40
0.0
 40
0.0
 40
1.0
 40
1.0
 40
1.0
 40
1.0
 10
9.4123
 20
22.6427
 30
0.0
 10
9.4123
 20
22.6427
 30
0.0
 10
9.4123
 20
23.4225
 30
0.0
 10
9.4123
 20
23.4225
 30
0.0
  0
SPLINE
  5
E8
330
1F
100
AcDbEntity
  8
Ilustrace
 62
   250
370
    30
100
AcDbSpline
210
0.0
220
0.0
230
1.0
 70
    24
 71
     3
 72
     8
 73
     4
 74
     0
 42
0.0000000001
 43
0.0000000001
 40
0.0
 40
0.0
 40
0.0
 40
0.0
 40
1.0
 40
1.0
 40
1.0
 40
1.0
 10
8.3489
 20
22.6427
 30
0.0
 10
8.3489
 20
22.6427
 30
0.0
 10
43.6224
 20
22.6427
 30
0.0
 10
43.6224
 20
22.6427
 30
0.0
  0
SPLINE
  5
E9
330
1F
100
AcDbEntity
  8
Ilustrace
 62
   250
370
    30
100
AcDbSpline
210
0.0
220
0.0
230
1.0
 70
    24
 71
     3
 72
     8
 73
     4
 74
     0
 42
0.0000000001
 43
0.0000000001
 40
0.0
 40
0.0
 40
0.0
 40
0.0
 40
1.0
 40
1.0
 40
1.0
 40
1.0
 10
43.6224
 20
23.3516
 30
0.0
 10
43.6224
 20
23.3516
 30
0.0
 10
43.6224
 20
22.6427
 30
0.0
 10
43.6224
 20
22.6427
 30
0.0
  0
SPLINE
  5
EA
330
1F
100
AcDbEntity
  8
Ilustrace
 62
   250
370
    30
100
AcDbSpline
210
0.0
220
0.0
230
1.0
 70
    24
 71
     3
 72
     8
 73
     4
 74
     0
 42
0.0000000001
 43
0.0000000001
 40
0.0
 40
0.0
 40
0.0
 40
0.0
 40
1.0
 40
1.0
 40
1.0
 40
1.0
 10
42.6138
 20
23.3516
 30
0.0
 10
42.6138
 20
23.3516
 30
0.0
 10
43.6224
 20
23.3516
 30
0.0
 10
43.6224
 20
23.3516
 30
0.0
  0
SPLINE
  5
EB
330
1F
100
AcDbEntity
  8
Ilustrace
 62
   250
370
    30
100
AcDbSpline
210
0.0
220
0.0
230
1.0
 70
    24
 71
     3
 72
     8
 73
     4
 74
     0
 42
0.0000000001
 43
0.0000000001
 40
0.0
 40
0.0
 40
0.0
 40
0.0
 40
1.0
 40
1.0
 40
1.0
 40
1.0
 10
42.2046
 20
22.6427
 30
0.0
 10
42.2046
 20
22.6427
 30
0.0
 10
42.6138
 20
23.3516
 30
0.0
 10
42.6138
 20
23.3516
 30
0.0
  0
SPLINE
  5
EC
330
1F
100
AcDbEntity
  8
Ilustrace
 62
   250
370
    30
100
AcDbSpline
210
0.0
220
0.0
230
1.0
 70
    24
 71
     3
 72
     8
 73
     4
 74
     0
 42
0.0000000001
 43
0.0000000001
 40
0.0
 40
0.0
 40
0.0
 40
0.0
 40
1.0
 40
1.0
 40
1.0
 40
1.0
 10
43.0286
 20
21.9337
 30
0.0
 10
43.0286
 20
21.9337
 30
0.0
 10
8.4108
 20
21.9337
 30
0.0
 10
8.4108
 20
21.9337
 30
0.0
  0
SPLINE
  5
ED
330
1F
100
AcDbEntity
  8
Ilustrace
 62
   250
370
    30
100
AcDbSpline
210
0.0
220
0.0
230
1.0
 70
    24
 71
     3
 72
     8
 73
     4
 74
     0
 42
0.0000000001
 43
0.0000000001
 40
0.0
 40
0.0
 40
0.0
 40
0.0
 40
1.0
 40
1.0
 40
1.0
 40
1.0
 10
43.0908
 20
22.6427
 30
0.0
 10
43.0908
 20
22.6427
 30
0.0
 10
43.0286
 20
21.9337
 30
0.0
 10
43.0286
 20
21.9337
 30
0.0
  0
SPLINE
  5
EE
330
1F
100
AcDbEntity
  8
Ilustrace
 62
   250
370
    30
100
AcDbSpline
210
0.0
220
0.0
230
1.0
 70
    24
 71
     3
 72
     8
 73
     4
 74
     0
 42
0.0000000001
 43
0.0000000001
 40
0.0
 40
0.0
 40
0.0
 40
0.0
 40
1.0
 40
1.0
 40
1.0
 40
1.0
 10
8.5969
 20
19.8065
 30
0.0
 10
8.5969
 20
19.8065
 30
0.0
 10
8.4947
 20
20.9765
 30
0.0
 10
8.4947
 20
20.9765
 30
0.0
  0
SPLINE
  5
EF
330
1F
100
AcDbEntity
  8
Ilustrace
 62
   250
370
    30
100
AcDbSpline
210
0.0
220
0.0
230
1.0
 70
    24
 71
     3
 72
     8
 73
     4
 74
     0
 42
0.0000000001
 43
0.0000000001
 40
0.0
 40
0.0
 40
0.0
 40
0.0
 40
1.0
 40
1.0
 40
1.0
 40
1.0
 10
42.9451
 20
20.9765
 30
0.0
 10
42.9451
 20
20.9765
 30
0.0
 10
8.4947
 20
20.9765
 30
0.0
 10
8.4947
 20
20.9765
 30
0.0
  0
SPLINE
  5
F0
330
1F
100
AcDbEntity
  8
Ilustrace
 62
   250
370
    30
100
AcDbSpline
210
0.0
220
0.0
230
1.0
 70
    24
 71
     3
 72
     8
 73
     4
 74
     0
 42
0.0000000001
 43
0.0000000001
 40
0.0
 40
0.0
 40
0.0
 40
0.0
 40
1.0
 40
1.0
 40
1.0
 40
1.0
 10
42.8425
 20
19.8065
 30
0.0
 10
42.8425
 20
19.8065
 30
0.0
 10
42.9451
 20
20.9765
 30
0.0
 10
42.9451
 20
20.9765
 30
0.0
  0
SPLINE
  5
F1
330
1F
100
AcDbEntity
  8
Ilustrace
 62
   250
370
    30
100
AcDbSpline
210
0.0
220
0.0
230
1.0
 70
    24
 71
     3
 72
     8
 73
     4
 74
     0
 42
0.0000000001
 43
0.0000000001
 40
0.0
 40
0.0
 40
0.0
 40
0.0
 40
1.0
 40
1.0
 40
1.0
 40
1.0
 10
8.5969
 20
19.8065
 30
0.0
 10
8.5969
 20
19.8065
 30
0.0
 10
42.8425
 20
19.8065
 30
0.0
 10
42.8425
 20
19.8065
 30
0.0
  0
SPLINE
  5
F2
330
1F
100
AcDbEntity
  8
Ilustrace
 62
   250
370
    30
100
AcDbSpline
210
0.0
220
0.0
230
1.0
 70
    24
 71
     3
 72
     8
 73
     4
 74
     0
 42
0.0000000001
 43
0.0000000001
 40
0.0
 40
0.0
 40
0.0
 40
0.0
 40
1.0
 40
1.0
 40
1.0
 40
1.0
 10
8.9869
 20
21.9337
 30
0.0
 10
8.9869
 20
21.9337
 30
0.0
 10
8.9869
 20
20.9765
 30
0.0
 10
8.9869
 20
20.9765
 30
0.0
  0
SPLINE
  5
F3
330
1F
100
AcDbEntity
  8
Ilustrace
 62
   250
370
    30
100
AcDbSpline
210
0.0
220
0.0
230
1.0
 70
    24
 71
     3
 72
     8
 73
     4
 74
     0
 42
0.0000000001
 43
0.0000000001
 40
0.0
 40
0.0
 40
0.0
 40
0.0
 40
1.0
 40
1.0
 40
1.0
 40
1.0
 10
27.2715
 20
3.3213
 30
0.0
 10
27.2715
 20
3.3213
 30
0.0
 10
27.2715
 20
1.1949
 30
0.0
 10
27.2715
 20
1.1949
 30
0.0
  0
SPLINE
  5
F4
330
1F
100
AcDbEntity
  8
Ilustrace
 62
   250
370
    30
100
AcDbSpline
210
0.0
220
0.0
230
1.0
 70
    24
 71
     3
 72
     8
 73
     4
 74
     0
 42
0.0000000001
 43
0.0000000001
 40
0.0
 40
0.0
 40
0.0
 40
0.0
 40
1.0
 40
1.0
 40
1.0
 40
1.0
 10
27.9805
 20
1.1949
 30
0.0
 10
27.9805
 20
1.1949
 30
0.0
 10
27.2715
 20
1.1949
 30
0.0
 10
27.2715
 20
1.1949
 30
0.0
  0
SPLINE
  5
F5
330
1F
100
AcDbEntity
  8
Ilustrace
 62
   250
370
    30
100
AcDbSpline
210
0.0
220
0.0
230
1.0
 70
    24
 71
     3
 72
     8
 73
     4
 74
     0
 42
0.0000000001
 43
0.0000000001
 40
0.0
 40
0.0
 40
0.0
 40
0.0
 40
1.0
 40
1.0
 40
1.0
 40
1.0
 10
27.9808
 20
3.3213
 30
0.0
 10
27.9808
 20
3.3213
 30
0.0
 10
27.9808
 20
1.1949
 30
0.0
 10
27.9808
 20
1.1949
 30
0.0
  0
SPLINE
  5
F6
330
1F
100
AcDbEntity
  8
Ilustrace
 62
   250
370
    30
100
AcDbSpline
210
0.0
220
0.0
230
1.0
 70
    24
 71
     3
 72
     8
 73
     4
 74
     0
 42
0.0000000001
 43
0.0000000001
 40
0.0
 40
0.0
 40
0.0
 40
0.0
 40
1.0
 40
1.0
 40
1.0
 40
1.0
 10
27.2715
 20
3.3213
 30
0.0
 10
27.2715
 20
3.3213
 30
0.0
 10
27.9808
 20
3.3213
 30
0.0
 10
27.9808
 20
3.3213
 30
0.0
  0
SPLINE
  5
F7
330
1F
100
AcDbEntity
  8
Ilustrace
 62
   250
370
    30
100
AcDbSpline
210
0.0
220
0.0
230
1.0
 70
    24
 71
     3
 72
     8
 73
     4
 74
     0
 42
0.0000000001
 43
0.0000000001
 40
0.0
 40
0.0
 40
0.0
 40
0.0
 40
1.0
 40
1.0
 40
1.0
 40
1.0
 10
34.12
 20
3.3216
 30
0.0
 10
34.12
 20
3.3216
 30
0.0
 10
34.12
 20
1.1949
 30
0.0
 10
34.12
 20
1.1949
 30
0.0
  0
SPLINE
  5
F8
330
1F
100
AcDbEntity
  8
Ilustrace
 62
   250
370
    30
100
AcDbSpline
210
0.0
220
0.0
230
1.0
 70
    24
 71
     3
 72
     8
 73
     4
 74
     0
 42
0.0000000001
 43
0.0000000001
 40
0.0
 40
0.0
 40
0.0
 40
0.0
 40
1.0
 40
1.0
 40
1.0
 40
1.0
 10
34.8289
 20
1.1949
 30
0.0
 10
34.8289
 20
1.1949
 30
0.0
 10
34.12
 20
1.1949
 30
0.0
 10
34.12
 20
1.1949
 30
0.0
  0
SPLINE
  5
F9
330
1F
100
AcDbEntity
  8
Ilustrace
 62
   250
370
    30
100
AcDbSpline
210
0.0
220
0.0
230
1.0
 70
    24
 71
     3
 72
     8
 73
     4
 74
     0
 42
0.0000000001
 43
0.0000000001
 40
0.0
 40
0.0
 40
0.0
 40
0.0
 40
1.0
 40
1.0
 40
1.0
 40
1.0
 10
34.8289
 20
3.3216
 30
0.0
 10
34.8289
 20
3.3216
 30
0.0
 10
34.8289
 20
1.1949
 30
0.0
 10
34.8289
 20
1.1949
 30
0.0
  0
SPLINE
  5
FA
330
1F
100
AcDbEntity
  8
Ilustrace
 62
   250
370
    30
100
AcDbSpline
210
0.0
220
0.0
230
1.0
 70
    24
 71
     3
 72
     8
 73
     4
 74
     0
 42
0.0000000001
 43
0.0000000001
 40
0.0
 40
0.0
 40
0.0
 40
0.0
 40
1.0
 40
1.0
 40
1.0
 40
1.0
 10
42.4526
 20
21.9337
 30
0.0
 10
42.4526
 20
21.9337
 30
0.0
 10
42.4526
 20
20.9765
 30
0.0
 10
42.4526
 20
20.9765
 30
0.0
  0
SPLINE
  5
FB
330
1F
100
AcDbEntity
  8
Ilustrace
 62
   250
370
    30
100
AcDbSpline
210
0.0
220
0.0
230
1.0
 70
     8
 71
     3
 72
    12
 73
     8
 74
     0
 42
0.0000000001
 43
0.0000000001
 40
0.0
 40
0.0
 40
0.0
 40
0.0
 40
0.3333333333333333
 40
0.3333333333333333
 40
0.3333333333333333
 40
0.3333333333333333
 40
1.0
 40
1.0
 40
1.0
 40
1.0
 10
9.6961
 20
22.6427
 30
0.0
 10
10.0755
 20
23.0299
 30
0.0
 10
10.4579
 20
23.3968
 30
0.0
 10
10.894
 20
23.7218
 30
0.0
 10
10.894
 20
23.7218
 30
0.0
 10
11.9718
 20
24.5245
 30
0.0
 10
13.225
 20
25.0628
 30
0.0
 10
14.5448
 20
25.3003
 30
0.0
  0
SPLINE
  5
FC
330
1F
100
AcDbEntity
  8
Ilustrace
 62
   250
370
    30
100
AcDbSpline
210
0.0
220
0.0
230
1.0
 70
     8
 71
     3
 72
     8
 73
     4
 74
     0
 42
0.0000000001
 43
0.0000000001
 40
0.0
 40
0.0
 40
0.0
 40
0.0
 40
1.0
 40
1.0
 40
1.0
 40
1.0
 10
14.4202
 20
25.2787
 30
0.0
 10
16.4198
 20
25.6373
 30
0.0
 10
18.4456
 20
25.3572
 30
0.0
 10
20.2428
 20
24.376
 30
0.0
  0
SPLINE
  5
FD
330
1F
100
AcDbEntity
  8
Ilustrace
 62
   250
370
    30
100
AcDbSpline
210
0.0
220
0.0
230
1.0
 70
     8
 71
     3
 72
     8
 73
     4
 74
     0
 42
0.0000000001
 43
0.0000000001
 40
0.0
 40
0.0
 40
0.0
 40
0.0
 40
1.0
 40
1.0
 40
1.0
 40
1.0
 10
21.4802
 20
23.5578
 30
0.0
 10
21.8302
 20
23.2722
 30
0.0
 10
22.1527
 20
22.9699
 30
0.0
 10
22.4654
 20
22.6427
 30
0.0
  0
SPLINE
  5
FE
330
1F
100
AcDbEntity
  8
Ilustrace
 62
   250
370
    30
100
AcDbSpline
210
0.0
220
0.0
230
1.0
 70
     8
 71
     3
 72
     8
 73
     4
 74
     0
 42
0.0000000001
 43
0.0000000001
 40
0.0
 40
0.0
 40
0.0
 40
0.0
 40
1.0
 40
1.0
 40
1.0
 40
1.0
 10
21.5724
 20
23.4814
 30
0.0
 10
21.1522
 20
23.8246
 30
0.0
 10
20.7061
 20
24.1226
 30
0.0
 10
20.2311
 20
24.3841
 30
0.0
  0
SPLINE
  5
FF
330
1F
100
AcDbEntity
  8
Ilustrace
 62
   250
370
    30
100
AcDbSpline
210
0.0
220
0.0
230
1.0
 70
     8
 71
     3
 72
     8
 73
     4
 74
     0
 42
0.0000000001
 43
0.0000000001
 40
0.0
 40
0.0
 40
0.0
 40
0.0
 40
1.0
 40
1.0
 40
1.0
 40
1.0
 10
19.0606
 20
19.5454
 30
0.0
 10
18.4224
 20
19.7002
 30
0.0
 10
17.8103
 20
19.7843
 30
0.0
 10
17.1538
 20
19.8065
 30
0.0
  0
SPLINE
  5
100
330
1F
100
AcDbEntity
  8
Ilustrace
 62
   250
370
    30
100
AcDbSpline
210
0.0
220
0.0
230
1.0
 70
     8
 71
     3
 72
    16
 73
    12
 74
     0
 42
0.0000000001
 43
0.0000000001
 40
0.0
 40
0.0
 40
0.0
 40
0.0
 40
0.25
 40
0.25
 40
0.25
 40
0.25
 40
0.5
 40
0.5
 40
0.5
 40
0.5
 40
1.0
 40
1.0
 40
1.0
 40
1.0
 10
18.9364
 20
19.5845
 30
0.0
 10
19.4481
 20
19.4227
 30
0.0
 10
19.9389
 20
19.2588
 30
0.0
 10
20.4167
 20
19.0111
 30
0.0
 10
20.4167
 20
19.0111
 30
0.0
 10
21.9678
 20
18.2071
 30
0.0
 10
23.1856
 20
16.8314
 30
0.0
 10
23.7966
 20
15.1948
 30
0.0
 10
23.7966
 20
15.1948
 30
0.0
 10
24.0934
 20
14.4004
 30
0.0
 10
24.191
 20
13.5914
 30
0.0
 10
24.2793
 20
12.7536
 30
0.0
  0
SPLINE
  5
101
330
1F
100
AcDbEntity
  8
Ilustrace
 62
   250
370
    30
100
AcDbSpline
210
0.0
220
0.0
230
1.0
 70
     8
 71
     3
 72
    12
 73
     8
 74
     0
 42
0.0000000001
 43
0.0000000001
 40
0.0
 40
0.0
 40
0.0
 40
0.0
 40
0.3333333333333333
 40
0.3333333333333333
 40
0.3333333333333333
 40
0.3333333333333333
 40
1.0
 40
1.0
 40
1.0
 40
1.0
 10
24.2793
 20
12.7536
 30
0.0
 10
24.2793
 20
12.7536
 30
0.0
 10
25.4218
 20
1.8999
 30
0.0
 10
25.4218
 20
1.8999
 30
0.0
 10
25.4218
 20
1.8999
 30
0.0
 10
25.4218
 20
1.8999
 30
0.0
 10
25.496
 20
1.1949
 30
0.0
 10
25.496
 20
1.1949
 30
0.0
  0
SPLINE
  5
102
330
1F
100
AcDbEntity
  8
Ilustrace
 62
   250
370
    30
100
AcDbSpline
210
0.0
220
0.0
230
1.0
 70
    11
 71
     3
 72
    28
 73
    24
 74
     0
 42
0.0000000001
 43
0.0000000001
 40
0.0
 40
0.0
 40
0.0
 40
0.0
 40
0.1428571428571428
 40
0.1428571428571428
 40
0.1428571428571428
 40
0.1428571428571428
 40
0.2857142857142857
 40
0.2857142857142857
 40
0.2857142857142857
 40
0.2857142857142857
 40
0.4285714285714285
 40
0.4285714285714285
 40
0.4285714285714285
 40
0.4285714285714285
 40
0.5714285714285714
 40
0.5714285714285714
 40
0.5714285714285714
 40
0.5714285714285714
 40
0.7142857142857143
 40
0.7142857142857143
 40
0.7142857142857143
 40
0.7142857142857143
 40
1.0
 40
1.0
 40
1.0
 40
1.0
 10
38.4151
 20
2.9278
 30
0.0
 10
38.4151
 20
3.2494
 30
0.0
 10
38.2056
 20
3.4752
 30
0.0
 10
37.8848
 20
3.499
 30
0.0
 10
37.8848
 20
3.499
 30
0.0
 10
37.7754
 20
3.4909
 30
0.0
 10
37.6774
 20
3.4698
 30
0.0
 10
37.5851
 20
3.4066
 30
0.0
 10
37.5851
 20
3.4066
 30
0.0
 10
37.5192
 20
3.3618
 30
0.0
 10
37.464
 20
3.3023
 30
0.0
 10
37.4242
 20
3.2332
 30
0.0
 10
37.4242
 20
3.2332
 30
0.0
 10
37.1687
 20
2.7904
 30
0.0
 10
37.6548
 20
2.2664
 30
0.0
 10
38.1154
 20
2.4883
 30
0.0
 10
38.1154
 20
2.4883
 30
0.0
 10
38.1872
 20
2.5228
 30
0.0
 10
38.2507
 20
2.5736
 30
0.0
 10
38.3005
 20
2.6358
 30
0.0
 10
38.3005
 20
2.6358
 30
0.0
 10
38.37
 20
2.7233
 30
0.0
 10
38.3985
 20
2.8192
 30
0.0
 10
38.4151
 20
2.9278
 30
0.0
  0
SPLINE
  5
103
330
1F
100
AcDbEntity
  8
Ilustrace
 62
   250
370
    30
100
AcDbSpline
210
0.0
220
0.0
230
1.0
 70
     8
 71
     3
 72
     8
 73
     4
 74
     0
 42
0.0000000001
 43
0.0000000001
 40
0.0
 40
0.0
 40
0.0
 40
0.0
 40
1.0
 40
1.0
 40
1.0
 40
1.0
 10
41.6288
 20
19.8065
 30
0.0
 10
41.5553
 20
19.445
 30
0.0
 10
41.5056
 20
19.1198
 30
0.0
 10
41.2216
 20
18.8623
 30
0.0
  0
SPLINE
  5
104
330
1F
100
AcDbEntity
  8
Ilustrace
 62
   250
370
    30
100
AcDbSpline
210
0.0
220
0.0
230
1.0
 70
     8
 71
     3
 72
    16
 73
    12
 74
     0
 42
0.0000000001
 43
0.0000000001
 40
0.0
 40
0.0
 40
0.0
 40
0.0
 40
0.25
 40
0.25
 40
0.25
 40
0.25
 40
0.5
 40
0.5
 40
0.5
 40
0.5
 40
1.0
 40
1.0
 40
1.0
 40
1.0
 10
41.2216
 20
18.8623
 30
0.0
 10
41.2216
 20
18.8623
 30
0.0
 10
40.6931
 20
18.3898
 30
0.0
 10
40.6931
 20
18.3898
 30
0.0
 10
40.6931
 20
18.3898
 30
0.0
 10
40.6931
 20
18.3898
 30
0.0
 10
40.5698
 20
18.2794
 30
0.0
 10
40.5698
 20
18.2794
 30
0.0
 10
40.5698
 20
18.2794
 30
0.0
 10
40.5698
 20
18.2794
 30
0.0
 10
40.0412
 20
17.8068
 30
0.0
 10
40.0412
 20
17.8068
 30
0.0
  0
SPLINE
  5
105
330
1F
100
AcDbEntity
  8
Ilustrace
 62
   250
370
    30
100
AcDbSpline
210
0.0
220
0.0
230
1.0
 70
     8
 71
     3
 72
     8
 73
     4
 74
     0
 42
0.0000000001
 43
0.0000000001
 40
0.0
 40
0.0
 40
0.0
 40
0.0
 40
1.0
 40
1.0
 40
1.0
 40
1.0
 10
40.0412
 20
17.8068
 30
0.0
 10
39.9898
 20
17.7604
 30
0.0
 10
39.9526
 20
17.7001
 30
0.0
 10
39.9348
 20
17.6329
 30
0.0
  0
SPLINE
  5
106
330
1F
100
AcDbEntity
  8
Ilustrace
 62
   250
370
    30
100
AcDbSpline
210
0.0
220
0.0
230
1.0
 70
     8
 71
     3
 72
    20
 73
    16
 74
     0
 42
0.0000000001
 43
0.0000000001
 40
0.0
 40
0.0
 40
0.0
 40
0.0
 40
0.2
 40
0.2
 40
0.2
 40
0.2
 40
0.4
 40
0.4
 40
0.4
 40
0.4
 40
0.6
 40
0.6
 40
0.6
 40
0.6
 40
1.0
 40
1.0
 40
1.0
 40
1.0
 10
39.9348
 20
17.6329
 30
0.0
 10
39.9348
 20
17.6329
 30
0.0
 10
39.9255
 20
17.5828
 30
0.0
 10
39.9255
 20
17.5828
 30
0.0
 10
39.9255
 20
17.5828
 30
0.0
 10
39.9255
 20
17.5828
 30
0.0
 10
39.8462
 20
16.8783
 30
0.0
 10
39.8462
 20
16.8783
 30
0.0
 10
39.8462
 20
16.8783
 30
0.0
 10
39.8462
 20
16.8783
 30
0.0
 10
38.4902
 20
4.8257
 30
0.0
 10
38.4902
 20
4.8257
 30
0.0
 10
38.4902
 20
4.8257
 30
0.0
 10
38.4902
 20
4.8257
 30
0.0
 10
38.4109
 20
4.1212
 30
0.0
 10
38.4109
 20
4.1212
 30
0.0
  0
SPLINE
  5
107
330
1F
100
AcDbEntity
  8
Ilustrace
 62
   250
370
    30
100
AcDbSpline
210
0.0
220
0.0
230
1.0
 70
    24
 71
     3
 72
     8
 73
     4
 74
     0
 42
0.0000000001
 43
0.0000000001
 40
0.0
 40
0.0
 40
0.0
 40
0.0
 40
1.0
 40
1.0
 40
1.0
 40
1.0
 10
27.2715
 20
1.1949
 30
0.0
 10
27.2715
 20
1.1949
 30
0.0
 10
25.1576
 20
1.1949
 30
0.0
 10
25.1576
 20
1.1949
 30
0.0
  0
SPLINE
  5
108
330
1F
100
AcDbEntity
  8
Ilustrace
 62
   250
370
    30
100
AcDbSpline
210
0.0
220
0.0
230
1.0
 70
    24
 71
     3
 72
     8
 73
     4
 74
     0
 42
0.0000000001
 43
0.0000000001
 40
0.0
 40
0.0
 40
0.0
 40
0.0
 40
1.0
 40
1.0
 40
1.0
 40
1.0
 10
41.6686
 20
1.1949
 30
0.0
 10
41.6686
 20
1.1949
 30
0.0
 10
42.1971
 20
1.1949
 30
0.0
 10
42.1971
 20
1.1949
 30
0.0
  0
SPLINE
  5
109
330
1F
100
AcDbEntity
  8
Ilustrace
 62
   250
370
    30
100
AcDbSpline
210
0.0
220
0.0
230
1.0
 70
    24
 71
     3
 72
     8
 73
     4
 74
     0
 42
0.0000000001
 43
0.0000000001
 40
0.0
 40
0.0
 40
0.0
 40
0.0
 40
1.0
 40
1.0
 40
1.0
 40
1.0
 10
34.12
 20
1.1949
 30
0.0
 10
34.12
 20
1.1949
 30
0.0
 10
27.9805
 20
1.1949
 30
0.0
 10
27.9805
 20
1.1949
 30
0.0
  0
SPLINE
  5
10A
330
1F
100
AcDbEntity
  8
Ilustrace
 62
   250
370
    30
100
AcDbSpline
210
0.0
220
0.0
230
1.0
 70
    24
 71
     3
 72
     8
 73
     4
 74
     0
 42
0.0000000001
 43
0.0000000001
 40
0.0
 40
0.0
 40
0.0
 40
0.0
 40
1.0
 40
1.0
 40
1.0
 40
1.0
 10
37.353
 20
1.1949
 30
0.0
 10
37.353
 20
1.1949
 30
0.0
 10
34.8289
 20
1.1949
 30
0.0
 10
34.8289
 20
1.1949
 30
0.0
  0
SPLINE
  5
10B
330
1F
100
AcDbEntity
  8
Ilustrace
 62
   250
370
    30
100
AcDbSpline
210
0.0
220
0.0
230
1.0
 70
    24
 71
     3
 72
     8
 73
     4
 74
     0
 42
0.0000000001
 43
0.0000000001
 40
0.0
 40
0.0
 40
0.0
 40
0.0
 40
1.0
 40
1.0
 40
1.0
 40
1.0
 10
37.353
 20
2.0812
 30
0.0
 10
37.353
 20
2.0812
 30
0.0
 10
37.353
 20
1.1949
 30
0.0
 10
37.353
 20
1.1949
 30
0.0
  0
SPLINE
  5
10C
330
1F
100
AcDbEntity
  8
Ilustrace
 62
   250
370
    30
100
AcDbSpline
210
0.0
220
0.0
230
1.0
 70
    24
 71
     3
 72
     8
 73
     4
 74
     0
 42
0.0000000001
 43
0.0000000001
 40
0.0
 40
0.0
 40
0.0
 40
0.0
 40
1.0
 40
1.0
 40
1.0
 40
1.0
 10
37.8848
 20
2.0812
 30
0.0
 10
37.8848
 20
2.0812
 30
0.0
 10
37.353
 20
2.0812
 30
0.0
 10
37.353
 20
2.0812
 30
0.0
  0
SPLINE
  5
10D
330
1F
100
AcDbEntity
  8
Ilustrace
 62
   250
370
    30
100
AcDbSpline
210
0.0
220
0.0
230
1.0
 70
    24
 71
     3
 72
     8
 73
     4
 74
     0
 42
0.0000000001
 43
0.0000000001
 40
0.0
 40
0.0
 40
0.0
 40
0.0
 40
1.0
 40
1.0
 40
1.0
 40
1.0
 10
37.8848
 20
2.0812
 30
0.0
 10
37.8848
 20
2.0812
 30
0.0
 10
37.8848
 20
1.1949
 30
0.0
 10
37.8848
 20
1.1949
 30
0.0
  0
SPLINE
  5
10E
330
1F
100
AcDbEntity
  8
Ilustrace
 62
   250
370
    30
100
AcDbSpline
210
0.0
220
0.0
230
1.0
 70
    24
 71
     3
 72
     8
 73
     4
 74
     0
 42
0.0000000001
 43
0.0000000001
 40
0.0
 40
0.0
 40
0.0
 40
0.0
 40
1.0
 40
1.0
 40
1.0
 40
1.0
 10
39.2936
 20
1.1949
 30
0.0
 10
39.2936
 20
1.1949
 30
0.0
 10
37.8848
 20
1.1949
 30
0.0
 10
37.8848
 20
1.1949
 30
0.0
  0
SPLINE
  5
10F
330
1F
100
AcDbEntity
  8
Ilustrace
 62
   250
370
    30
100
AcDbSpline
210
0.0
220
0.0
230
1.0
 70
    24
 71
     3
 72
     8
 73
     4
 74
     0
 42
0.0000000001
 43
0.0000000001
 40
0.0
 40
0.0
 40
0.0
 40
0.0
 40
1.0
 40
1.0
 40
1.0
 40
1.0
 10
38.7639
 20
1.7405
 30
0.0
 10
38.7639
 20
1.7405
 30
0.0
 10
38.6677
 20
1.1949
 30
0.0
 10
38.6677
 20
1.1949
 30
0.0
  0
SPLINE
  5
110
330
1F
100
AcDbEntity
  8
Ilustrace
 62
   250
370
    30
100
AcDbSpline
210
0.0
220
0.0
230
1.0
 70
     8
 71
     3
 72
    12
 73
     8
 74
     0
 42
0.0000000001
 43
0.0000000001
 40
0.0
 40
0.0
 40
0.0
 40
0.0
 40
0.3333333333333333
 40
0.3333333333333333
 40
0.3333333333333333
 40
0.3333333333333333
 40
1.0
 40
1.0
 40
1.0
 40
1.0
 10
42.1971
 20
1.1949
 30
0.0
 10
42.1931
 20
0.9559
 30
0.0
 10
42.2482
 20
0.6256
 30
0.0
 10
41.9707
 20
0.5122
 30
0.0
 10
41.9707
 20
0.5122
 30
0.0
 10
41.9136
 20
0.4888
 30
0.0
 10
41.8971
 20
0.4918
 30
0.0
 10
41.8364
 20
0.4857
 30
0.0
  0
SPLINE
  5
111
330
1F
100
AcDbEntity
  8
Ilustrace
 62
   250
370
    30
100
AcDbSpline
210
0.0
220
0.0
230
1.0
 70
    24
 71
     3
 72
    12
 73
     8
 74
     0
 42
0.0000000001
 43
0.0000000001
 40
0.0
 40
0.0
 40
0.0
 40
0.0
 40
0.3333333333333333
 40
0.3333333333333333
 40
0.3333333333333333
 40
0.3333333333333333
 40
1.0
 40
1.0
 40
1.0
 40
1.0
 10
41.8364
 20
0.4857
 30
0.0
 10
41.8364
 20
0.4857
 30
0.0
 10
41.1274
 20
0.4857
 30
0.0
 10
41.1274
 20
0.4857
 30
0.0
 10
41.1274
 20
0.4857
 30
0.0
 10
41.1274
 20
0.4857
 30
0.0
 10
26.2275
 20
0.4857
 30
0.0
 10
26.2275
 20
0.4857
 30
0.0
  0
SPLINE
  5
112
330
1F
100
AcDbEntity
  8
Ilustrace
 62
   250
370
    30
100
AcDbSpline
210
0.0
220
0.0
230
1.0
 70
     8
 71
     3
 72
     8
 73
     4
 74
     0
 42
0.0000000001
 43
0.0000000001
 40
0.0
 40
0.0
 40
0.0
 40
0.0
 40
1.0
 40
1.0
 40
1.0
 40
1.0
 10
26.2275
 20
0.4857
 30
0.0
 10
25.9687
 20
0.4857
 30
0.0
 10
25.1808
 20
0.3245
 30
0.0
 10
25.1639
 20
0.8342
 30
0.0
  0
SPLINE
  5
113
330
1F
100
AcDbEntity
  8
Ilustrace
 62
   250
370
    30
100
AcDbSpline
210
0.0
220
0.0
230
1.0
 70
    24
 71
     3
 72
     8
 73
     4
 74
     0
 42
0.0000000001
 43
0.0000000001
 40
0.0
 40
0.0
 40
0.0
 40
0.0
 40
1.0
 40
1.0
 40
1.0
 40
1.0
 10
25.1639
 20
0.8342
 30
0.0
 10
25.1639
 20
0.8342
 30
0.0
 10
25.1576
 20
1.1949
 30
0.0
 10
25.1576
 20
1.1949
 30
0.0
  0
SPLINE
  5
114
330
1F
100
AcDbEntity
  8
Ilustrace
 62
   250
370
    30
100
AcDbSpline
210
0.0
220
0.0
230
1.0
 70
     8
 71
     3
 72
    12
 73
     8
 74
     0
 42
0.0000000001
 43
0.0000000001
 40
0.0
 40
0.0
 40
0.0
 40
0.0
 40
0.3333333333333333
 40
0.3333333333333333
 40
0.3333333333333333
 40
0.3333333333333333
 40
1.0
 40
1.0
 40
1.0
 40
1.0
 10
31.2357
 20
-0.5875
 30
0.0
 10
30.2668
 20
-0.4772
 30
0.0
 10
29.3428
 20
-0.0903
 30
0.0
 10
28.4275
 20
0.2203
 30
0.0
 10
28.4275
 20
0.2203
 30
0.0
 10
28.1163
 20
0.3258
 30
0.0
 10
27.8463
 20
0.4596
 30
0.0
 10
27.5281
 20
0.4857
 30
0.0
  0
SPLINE
  5
115
330
1F
100
AcDbEntity
  8
Ilustrace
 62
   250
370
    30
100
AcDbSpline
210
0.0
220
0.0
230
1.0
 70
     8
 71
     3
 72
    12
 73
     8
 74
     0
 42
0.0000000001
 43
0.0000000001
 40
0.0
 40
0.0
 40
0.0
 40
0.0
 40
0.3333333333333333
 40
0.3333333333333333
 40
0.3333333333333333
 40
0.3333333333333333
 40
1.0
 40
1.0
 40
1.0
 40
1.0
 10
33.7553
 20
-0.4654
 30
0.0
 10
33.2067
 20
-0.5782
 30
0.0
 10
32.6713
 20
-0.6383
 30
0.0
 10
32.1115
 20
-0.6479
 30
0.0
 10
32.1115
 20
-0.6479
 30
0.0
 10
31.6329
 20
-0.6329
 30
0.0
 10
31.1741
 20
-0.5866
 30
0.0
 10
30.7045
 20
-0.4965
 30
0.0
  0
SPLINE
  5
116
330
1F
100
AcDbEntity
  8
Ilustrace
 62
   250
370
    30
100
AcDbSpline
210
0.0
220
0.0
230
1.0
 70
     8
 71
     3
 72
    12
 73
     8
 74
     0
 42
0.0000000001
 43
0.0000000001
 40
0.0
 40
0.0
 40
0.0
 40
0.0
 40
0.3333333333333333
 40
0.3333333333333333
 40
0.3333333333333333
 40
0.3333333333333333
 40
1.0
 40
1.0
 40
1.0
 40
1.0
 10
33.4131
 20
-0.5358
 30
0.0
 10
34.0208
 20
-0.4108
 30
0.0
 10
34.5937
 20
-0.2361
 30
0.0
 10
35.1586
 20
0.0188
 30
0.0
 10
35.1586
 20
0.0188
 30
0.0
 10
35.5045
 20
0.1748
 30
0.0
 10
35.8188
 20
0.4592
 30
0.0
 10
36.2064
 20
0.4857
 30
0.0
  0
SPLINE
  5
117
330
1F
100
AcDbEntity
  8
Ilustrace
 62
   250
370
    30
100
AcDbSpline
210
0.0
220
0.0
230
1.0
 70
     8
 71
     3
 72
    12
 73
     8
 74
     0
 42
0.0000000001
 43
0.0000000001
 40
0.0
 40
0.0
 40
0.0
 40
0.0
 40
0.3333333333333333
 40
0.3333333333333333
 40
0.3333333333333333
 40
0.3333333333333333
 40
1.0
 40
1.0
 40
1.0
 40
1.0
 10
37.3434
 20
4.0792
 30
0.0
 10
37.237
 20
4.0008
 30
0.0
 10
37.2051
 20
3.986
 30
0.0
 10
37.1161
 20
3.8865
 30
0.0
 10
37.1161
 20
3.8865
 30
0.0
 10
36.8187
 20
3.5537
 30
0.0
 10
36.808
 20
3.0708
 30
0.0
 10
36.7348
 20
2.6572
 30
0.0
  0
SPLINE
  5
118
330
1F
100
AcDbEntity
  8
Ilustrace
 62
   250
370
    30
100
AcDbSpline
210
0.0
220
0.0
230
1.0
 70
     8
 71
     3
 72
    12
 73
     8
 74
     0
 42
0.0000000001
 43
0.0000000001
 40
0.0
 40
0.0
 40
0.0
 40
0.0
 40
0.3333333333333333
 40
0.3333333333333333
 40
0.3333333333333333
 40
0.3333333333333333
 40
1.0
 40
1.0
 40
1.0
 40
1.0
 10
36.7348
 20
2.6572
 30
0.0
 10
36.7348
 20
2.6572
 30
0.0
 10
36.5999
 20
1.893
 30
0.0
 10
36.5999
 20
1.893
 30
0.0
 10
36.5999
 20
1.893
 30
0.0
 10
36.5999
 20
1.893
 30
0.0
 10
36.4766
 20
1.1949
 30
0.0
 10
36.4766
 20
1.1949
 30
0.0
  0
SPLINE
  5
119
330
1F
100
AcDbEntity
  8
Ilustrace
 62
   250
370
    30
100
AcDbSpline
210
0.0
220
0.0
230
1.0
 70
     8
 71
     3
 72
     8
 73
     4
 74
     0
 42
0.0000000001
 43
0.0000000001
 40
0.0
 40
0.0
 40
0.0
 40
0.0
 40
1.0
 40
1.0
 40
1.0
 40
1.0
 10
37.3434
 20
4.0735
 30
0.0
 10
37.7051
 20
4.2689
 30
0.0
 10
38.0516
 20
4.2818
 30
0.0
 10
38.4266
 20
4.1141
 30
0.0
  0
SPLINE
  5
11A
330
1F
100
AcDbEntity
  8
Ilustrace
 62
   250
370
    30
100
AcDbSpline
210
0.0
220
0.0
230
1.0
 70
     8
 71
     3
 72
     8
 73
     4
 74
     0
 42
0.0000000001
 43
0.0000000001
 40
0.0
 40
0.0
 40
0.0
 40
0.0
 40
1.0
 40
1.0
 40
1.0
 40
1.0
 10
38.4266
 20
4.1198
 30
0.0
 10
38.7864
 20
3.895
 30
0.0
 10
39.0395
 20
3.5269
 30
0.0
 10
38.993
 20
3.0847
 30
0.0
  0
SPLINE
  5
11B
330
1F
100
AcDbEntity
  8
Ilustrace
 62
   250
370
    30
100
AcDbSpline
210
0.0
220
0.0
230
1.0
 70
    11
 71
     3
 72
    32
 73
    28
 74
     0
 42
0.0000000001
 43
0.0000000001
 40
0.0
 40
0.0
 40
0.0
 40
0.0
 40
0.125
 40
0.125
 40
0.125
 40
0.125
 40
0.25
 40
0.25
 40
0.25
 40
0.25
 40
0.375
 40
0.375
 40
0.375
 40
0.375
 40
0.5
 40
0.5
 40
0.5
 40
0.5
 40
0.625
 40
0.625
 40
0.625
 40
0.625
 40
0.75
 40
0.75
 40
0.75
 40
0.75
 40
1.0
 40
1.0
 40
1.0
 40
1.0
 10
38.4548
 20
2.9674
 30
0.0
 10
38.4259
 20
3.2982
 30
0.0
 10
38.2154
 20
3.5085
 30
0.0
 10
37.8848
 20
3.5374
 30
0.0
 10
37.8848
 20
3.5374
 30
0.0
 10
37.7813
 20
3.5284
 30
0.0
 10
37.6914
 20
3.514
 30
0.0
 10
37.5998
 20
3.4611
 30
0.0
 10
37.5998
 20
3.4611
 30
0.0
 10
37.5421
 20
3.428
 30
0.0
 10
37.4907
 20
3.3847
 30
0.0
 10
37.4479
 20
3.3339
 30
0.0
 10
37.4479
 20
3.3339
 30
0.0
 10
37.1134
 20
2.935
 30
0.0
 10
37.4712
 20
2.3159
 30
0.0
 10
37.9837
 20
2.4061
 30
0.0
 10
37.9837
 20
2.4061
 30
0.0
 10
38.0492
 20
2.4179
 30
0.0
 10
38.112
 20
2.4405
 30
0.0
 10
38.1698
 20
2.4738
 30
0.0
 10
38.1698
 20
2.4738
 30
0.0
 10
38.2561
 20
2.5236
 30
0.0
 10
38.3285
 20
2.5962
 30
0.0
 10
38.3782
 20
2.6825
 30
0.0
 10
38.3782
 20
2.6825
 30
0.0
 10
38.4313
 20
2.7739
 30
0.0
 10
38.4456
 20
2.8641
 30
0.0
 10
38.4548
 20
2.9674
 30
0.0
  0
SPLINE
  5
11C
330
1F
100
AcDbEntity
  8
Ilustrace
 62
   250
370
    30
100
AcDbSpline
210
0.0
220
0.0
230
1.0
 70
     8
 71
     3
 72
    16
 73
    12
 74
     0
 42
0.0000000001
 43
0.0000000001
 40
0.0
 40
0.0
 40
0.0
 40
0.0
 40
0.25
 40
0.25
 40
0.25
 40
0.25
 40
0.5
 40
0.5
 40
0.5
 40
0.5
 40
1.0
 40
1.0
 40
1.0
 40
1.0
 10
39.0716
 20
3.5038
 30
0.0
 10
38.9839
 20
3.1836
 30
0.0
 10
38.9508
 20
2.8453
 30
0.0
 10
38.8931
 20
2.5172
 30
0.0
 10
38.8931
 20
2.5172
 30
0.0
 10
38.8354
 20
2.1906
 30
0.0
 10
38.6163
 20
1.6544
 30
0.0
 10
38.9161
 20
1.3521
 30
0.0
 10
38.9161
 20
1.3521
 30
0.0
 10
39.18
 20
1.0861
 30
0.0
 10
39.7118
 20
1.1949
 30
0.0
 10
40.0025
 20
1.1949
 30
0.0
  0
SPLINE
  5
11D
330
1F
100
AcDbEntity
  8
Ilustrace
 62
   250
370
    30
100
AcDbSpline
210
0.0
220
0.0
230
1.0
 70
    24
 71
     3
 72
     8
 73
     4
 74
     0
 42
0.0000000001
 43
0.0000000001
 40
0.0
 40
0.0
 40
0.0
 40
0.0
 40
1.0
 40
1.0
 40
1.0
 40
1.0
 10
40.0025
 20
1.1949
 30
0.0
 10
40.0025
 20
1.1949
 30
0.0
 10
40.9596
 20
1.1949
 30
0.0
 10
40.9596
 20
1.1949
 30
0.0
  0
SPLINE
  5
11E
330
1F
100
AcDbEntity
  8
Ilustrace
 62
   250
370
    30
100
AcDbSpline
210
0.0
220
0.0
230
1.0
 70
     8
 71
     3
 72
    12
 73
     8
 74
     0
 42
0.0000000001
 43
0.0000000001
 40
0.0
 40
0.0
 40
0.0
 40
0.0
 40
0.3333333333333333
 40
0.3333333333333333
 40
0.3333333333333333
 40
0.3333333333333333
 40
1.0
 40
1.0
 40
1.0
 40
1.0
 10
40.9596
 20
1.1949
 30
0.0
 10
41.3339
 20
1.1949
 30
0.0
 10
41.9866
 20
1.0575
 30
0.0
 10
42.1661
 20
1.5389
 30
0.0
 10
42.1661
 20
1.5389
 30
0.0
 10
42.1971
 20
1.6221
 30
0.0
 10
42.1928
 20
1.6432
 30
0.0
 10
42.2003
 20
1.7312
 30
0.0
  0
SPLINE
  5
11F
330
1F
100
AcDbEntity
  8
Ilustrace
 62
   250
370
    30
100
AcDbSpline
210
0.0
220
0.0
230
1.0
 70
     8
 71
     3
 72
    16
 73
    12
 74
     0
 42
0.0000000001
 43
0.0000000001
 40
0.0
 40
0.0
 40
0.0
 40
0.0
 40
0.25
 40
0.25
 40
0.25
 40
0.25
 40
0.5
 40
0.5
 40
0.5
 40
0.5
 40
1.0
 40
1.0
 40
1.0
 40
1.0
 10
40.9996
 20
6.6589
 30
0.0
 10
41.2089
 20
6.7143
 30
0.0
 10
41.4061
 20
6.6935
 30
0.0
 10
41.6298
 20
6.6896
 30
0.0
 10
41.6298
 20
6.6896
 30
0.0
 10
41.702
 20
6.6884
 30
0.0
 10
41.7536
 20
6.6788
 30
0.0
 10
41.821
 20
6.6541
 30
0.0
 10
41.821
 20
6.6541
 30
0.0
 10
42.2951
 20
6.4809
 30
0.0
 10
42.1646
 20
5.8132
 30
0.0
 10
42.1677
 20
5.4536
 30
0.0
  0
SPLINE
  5
120
330
1F
100
AcDbEntity
  8
Ilustrace
 62
   250
370
    30
100
AcDbSpline
210
0.0
220
0.0
230
1.0
 70
     8
 71
     3
 72
    16
 73
    12
 74
     0
 42
0.0000000001
 43
0.0000000001
 40
0.0
 40
0.0
 40
0.0
 40
0.0
 40
0.25
 40
0.25
 40
0.25
 40
0.25
 40
0.5
 40
0.5
 40
0.5
 40
0.5
 40
1.0
 40
1.0
 40
1.0
 40
1.0
 10
42.1677
 20
5.4536
 30
0.0
 10
42.1677
 20
5.4536
 30
0.0
 10
42.1941
 20
2.4401
 30
0.0
 10
42.1941
 20
2.4401
 30
0.0
 10
42.1941
 20
2.4401
 30
0.0
 10
42.1941
 20
2.4401
 30
0.0
 10
42.2003
 20
1.7312
 30
0.0
 10
42.2003
 20
1.7312
 30
0.0
 10
42.2003
 20
1.7312
 30
0.0
 10
42.2003
 20
1.7312
 30
0.0
 10
42.1928
 20
1.6375
 30
0.0
 10
42.1928
 20
1.6375
 30
0.0
  0
SPLINE
  5
121
330
1F
100
AcDbEntity
  8
Ilustrace
 62
   250
370
    30
100
AcDbSpline
210
0.0
220
0.0
230
1.0
 70
     8
 71
     3
 72
     8
 73
     4
 74
     0
 42
0.0000000001
 43
0.0000000001
 40
0.0
 40
0.0
 40
0.0
 40
0.0
 40
1.0
 40
1.0
 40
1.0
 40
1.0
 10
40.9711
 20
6.664
 30
0.0
 10
40.9248
 20
6.619
 30
0.0
 10
40.7576
 20
6.4918
 30
0.0
 10
40.7165
 20
6.4218
 30
0.0
  0
SPLINE
  5
122
330
1F
100
AcDbEntity
  8
Ilustrace
 62
   250
370
    30
100
AcDbSpline
210
0.0
220
0.0
230
1.0
 70
     8
 71
     3
 72
    12
 73
     8
 74
     0
 42
0.0000000001
 43
0.0000000001
 40
0.0
 40
0.0
 40
0.0
 40
0.0
 40
0.3333333333333333
 40
0.3333333333333333
 40
0.3333333333333333
 40
0.3333333333333333
 40
1.0
 40
1.0
 40
1.0
 40
1.0
 10
40.7165
 20
6.4218
 30
0.0
 10
40.7165
 20
6.4218
 30
0.0
 10
40.3647
 20
5.8061
 30
0.0
 10
40.3647
 20
5.8061
 30
0.0
 10
40.3647
 20
5.8061
 30
0.0
 10
40.3647
 20
5.8061
 30
0.0
 10
39.4722
 20
4.2437
 30
0.0
 10
39.4722
 20
4.2437
 30
0.0
  0
SPLINE
  5
123
330
1F
100
AcDbEntity
  8
Ilustrace
 62
   250
370
    30
100
AcDbSpline
210
0.0
220
0.0
230
1.0
 70
     8
 71
     3
 72
     8
 73
     4
 74
     0
 42
0.0000000001
 43
0.0000000001
 40
0.0
 40
0.0
 40
0.0
 40
0.0
 40
1.0
 40
1.0
 40
1.0
 40
1.0
 10
39.4722
 20
4.2437
 30
0.0
 10
39.327
 20
3.9893
 30
0.0
 10
39.1337
 20
3.7445
 30
0.0
 10
39.0587
 20
3.4565
 30
0.0
  0
SPLINE
  5
124
330
1F
100
AcDbEntity
  8
Ilustrace
 62
   250
370
    30
100
AcDbSpline
210
0.0
220
0.0
230
1.0
 70
    24
 71
     3
 72
     8
 73
     4
 74
     0
 42
0.0000000001
 43
0.0000000001
 40
0.0
 40
0.0
 40
0.0
 40
0.0
 40
1.0
 40
1.0
 40
1.0
 40
1.0
 10
34.12
 20
3.3216
 30
0.0
 10
34.12
 20
3.3216
 30
0.0
 10
34.8289
 20
3.3216
 30
0.0
 10
34.8289
 20
3.3216
 30
0.0
  0
SPLINE
  5
125
330
1F
100
AcDbEntity
  8
Ilustrace
 62
   250
370
    15
100
AcDbSpline
210
0.0
220
0.0
230
1.0
 70
    24
 71
     3
 72
     8
 73
     4
 74
     0
 42
0.0000000001
 43
0.0000000001
 40
0.0
 40
0.0
 40
0.0
 40
0.0
 40
1.0
 40
1.0
 40
1.0
 40
1.0
 10
3.8062
 20
1.476
 30
0.0
 10
3.8062
 20
1.476
 30
0.0
 10
3.8062
 20
22.5973
 30
0.0
 10
3.8062
 20
22.5973
 30
0.0
  0
SPLINE
  5
126
330
1F
100
AcDbEntity
  8
Ilustrace
 62
   250
100
AcDbSpline
210
0.0
220
0.0
230
1.0
 70
    11
 71
     3
 72
   124
 73
   120
 74
     0
 42
0.0000000001
 43
0.0000000001
 40
0.0
 40
0.0
 40
0.0
 40
0.0
 40
0.032258064516129
 40
0.032258064516129
 40
0.032258064516129
 40
0.032258064516129
 40
0.0645161290322581
 40
0.0645161290322581
 40
0.0645161290322581
 40
0.0645161290322581
 40
0.0967741935483871
 40
0.0967741935483871
 40
0.0967741935483871
 40
0.0967741935483871
 40
0.1290322580645161
 40
0.1290322580645161
 40
0.1290322580645161
 40
0.1290322580645161
 40
0.1612903225806452
 40
0.1612903225806452
 40
0.1612903225806452
 40
0.1612903225806452
 40
0.1935483870967742
 40
0.1935483870967742
 40
0.1935483870967742
 40
0.1935483870967742
 40
0.2258064516129032
 40
0.2258064516129032
 40
0.2258064516129032
 40
0.2258064516129032
 40
0.2580645161290323
 40
0.2580645161290323
 40
0.2580645161290323
 40
0.2580645161290323
 40
0.2903225806451613
 40
0.2903225806451613
 40
0.2903225806451613
 40
0.2903225806451613
 40
0.3225806451612903
 40
0.3225806451612903
 40
0.3225806451612903
 40
0.3225806451612903
 40
0.3548387096774194
 40
0.3548387096774194
 40
0.3548387096774194
 40
0.3548387096774194
 40
0.3870967741935484
 40
0.3870967741935484
 40
0.3870967741935484
 40
0.3870967741935484
 40
0.4193548387096774
 40
0.4193548387096774
 40
0.4193548387096774
 40
0.4193548387096774
 40
0.4516129032258064
 40
0.4516129032258064
 40
0.4516129032258064
 40
0.4516129032258064
 40
0.4838709677419355
 40
0.4838709677419355
 40
0.4838709677419355
 40
0.4838709677419355
 40
0.5161290322580645
 40
0.5161290322580645
 40
0.5161290322580645
 40
0.5161290322580645
 40
0.5483870967741935
 40
0.5483870967741935
 40
0.5483870967741935
 40
0.5483870967741935
 40
0.5806451612903226
 40
0.5806451612903226
 40
0.5806451612903226
 40
0.5806451612903226
 40
0.6129032258064516
 40
0.6129032258064516
 40
0.6129032258064516
 40
0.6129032258064516
 40
0.6451612903225806
 40
0.6451612903225806
 40
0.6451612903225806
 40
0.6451612903225806
 40
0.6774193548387096
 40
0.6774193548387096
 40
0.6774193548387096
 40
0.6774193548387096
 40
0.7096774193548387
 40
0.7096774193548387
 40
0.7096774193548387
 40
0.7096774193548387
 40
0.7419354838709677
 40
0.7419354838709677
 40
0.7419354838709677
 40
0.7419354838709677
 40
0.7741935483870968
 40
0.7741935483870968
 40
0.7741935483870968
 40
0.7741935483870968
 40
0.8064516129032258
 40
0.8064516129032258
 40
0.8064516129032258
 40
0.8064516129032258
 40
0.8387096774193549
 40
0.8387096774193549
 40
0.8387096774193549
 40
0.8387096774193549
 40
0.8709677419354839
 40
0.8709677419354839
 40
0.8709677419354839
 40
0.8709677419354839
 40
0.9032258064516129
 40
0.9032258064516129
 40
0.9032258064516129
 40
0.9032258064516129
 40
0.9354838709677419
 40
0.9354838709677419
 40
0.9354838709677419
 40
0.9354838709677419
 40
1.0
 40
1.0
 40
1.0
 40
1.0
 10
0.7494
 20
11.836
 30
0.0
 10
0.7494
 20
11.805
 30
0.0
 10
0.7507
 20
11.7681
 30
0.0
 10
0.7533
 20
11.7267
 30
0.0
 10
0.7533
 20
11.7267
 30
0.0
 10
0.7559
 20
11.6847
 30
0.0
 10
0.7611
 20
11.6381
 30
0.0
 10
0.7688
 20
11.5876
 30
0.0
 10
0.7688
 20
11.5876
 30
0.0
 10
0.7883
 20
11.4279
 30
0.0
 10
0.8296
 20
11.2798
 30
0.0
 10
0.8924
 20
11.1433
 30
0.0
 10
0.8924
 20
11.1433
 30
0.0
 10
0.9551
 20
11.0069
 30
0.0
 10
1.0379
 20
10.8859
 30
0.0
 10
1.1414
 20
10.7805
 30
0.0
 10
1.1414
 20
10.7805
 30
0.0
 10
1.2242
 20
10.6958
 30
0.0
 10
1.3225
 20
10.6214
 30
0.0
 10
1.4363
 20
10.558
 30
0.0
 10
1.4363
 20
10.558
 30
0.0
 10
1.5495
 20
10.494
 30
0.0
 10
1.6769
 20
10.4442
 30
0.0
 10
1.8179
 20
10.408
 30
0.0
 10
1.8179
 20
10.408
 30
0.0
 10
1.9589
 20
10.3724
 30
0.0
 10
2.1128
 20
10.3543
 30
0.0
 10
2.2784
 20
10.3536
 30
0.0
 10
2.2784
 20
10.3536
 30
0.0
 10
2.4427
 20
10.3543
 30
0.0
 10
2.5908
 20
10.3756
 30
0.0
 10
2.7227
 20
10.417
 30
0.0
 10
2.7227
 20
10.417
 30
0.0
 10
2.8553
 20
10.4591
 30
0.0
 10
2.9678
 20
10.5192
 30
0.0
 10
3.0616
 20
10.5975
 30
0.0
 10
3.0616
 20
10.5975
 30
0.0
 10
3.1554
 20
10.6751
 30
0.0
 10
3.2278
 20
10.7689
 30
0.0
 10
3.2776
 20
10.8775
 30
0.0
 10
3.2776
 20
10.8775
 30
0.0
 10
3.3274
 20
10.9862
 30
0.0
 10
3.3526
 20
11.1078
 30
0.0
 10
3.3533
 20
11.2423
 30
0.0
 10
3.3533
 20
11.2423
 30
0.0
 10
3.352
 20
11.3742
 30
0.0
 10
3.3274
 20
11.4926
 30
0.0
 10
3.2796
 20
11.5967
 30
0.0
 10
3.2796
 20
11.5967
 30
0.0
 10
3.2311
 20
11.7002
 30
0.0
 10
3.1651
 20
11.7888
 30
0.0
 10
3.0817
 20
11.8612
 30
0.0
 10
3.0817
 20
11.8612
 30
0.0
 10
2.9982
 20
11.9337
 30
0.0
 10
2.9031
 20
11.9893
 30
0.0
 10
2.7964
 20
12.0268
 30
0.0
 10
2.7964
 20
12.0268
 30
0.0
 10
2.6904
 20
12.065
 30
0.0
 10
2.5785
 20
12.0844
 30
0.0
 10
2.4608
 20
12.0844
 30
0.0
 10
2.4608
 20
12.0844
 30
0.0
 10
2.3379
 20
12.0837
 30
0.0
 10
2.2266
 20
12.065
 30
0.0
 10
2.127
 20
12.0281
 30
0.0
 10
2.127
 20
12.0281
 30
0.0
 10
2.0274
 20
11.9912
 30
0.0
 10
1.9414
 20
11.9388
 30
0.0
 10
1.8696
 20
11.8716
 30
0.0
 10
1.8696
 20
11.8716
 30
0.0
 10
1.7985
 20
11.8037
 30
0.0
 10
1.7429
 20
11.7235
 30
0.0
 10
1.7047
 20
11.631
 30
0.0
 10
1.7047
 20
11.631
 30
0.0
 10
1.6659
 20
11.5385
 30
0.0
 10
1.6465
 20
11.4357
 30
0.0
 10
1.6458
 20
11.3238
 30
0.0
 10
1.6458
 20
11.3238
 30
0.0
 10
1.6465
 20
11.2306
 30
0.0
 10
1.6601
 20
11.1453
 30
0.0
 10
1.6859
 20
11.0677
 30
0.0
 10
1.6859
 20
11.0677
 30
0.0
 10
1.7125
 20
10.99
 30
0.0
 10
1.7474
 20
10.9208
 30
0.0
 10
1.792
 20
10.8607
 30
0.0
 10
1.792
 20
10.8607
 30
0.0
 10
1.836
 20
10.8012
 30
0.0
 10
1.8858
 20
10.7507
 30
0.0
 10
1.9408
 20
10.7107
 30
0.0
 10
1.9408
 20
10.7107
 30
0.0
 10
1.9408
 20
10.7107
 30
0.0
 10
1.9408
 20
10.7029
 30
0.0
 10
1.9408
 20
10.7029
 30
0.0
 10
1.9408
 20
10.7029
 30
0.0
 10
1.8353
 20
10.7171
 30
0.0
 10
1.7338
 20
10.7456
 30
0.0
 10
1.6361
 20
10.7889
 30
0.0
 10
1.6361
 20
10.7889
 30
0.0
 10
1.5391
 20
10.8316
 30
0.0
 10
1.4499
 20
10.8885
 30
0.0
 10
1.369
 20
10.9609
 30
0.0
 10
1.369
 20
10.9609
 30
0.0
 10
1.2888
 20
11.0334
 30
0.0
 10
1.2203
 20
11.1207
 30
0.0
 10
1.1646
 20
11.2235
 30
0.0
 10
1.1646
 20
11.2235
 30
0.0
 10
1.109
 20
11.3264
 30
0.0
 10
1.0702
 20
11.4454
 30
0.0
 10
1.0482
 20
11.5799
 30
0.0
 10
1.0482
 20
11.5799
 30
0.0
 10
1.0405
 20
11.6284
 30
0.0
 10
1.0347
 20
11.675
 30
0.0
 10
1.0314
 20
11.7183
 30
0.0
 10
1.0314
 20
11.7183
 30
0.0
 10
1.0275
 20
11.7616
 30
0.0
 10
1.0269
 20
11.8011
 30
0.0
 10
1.0288
 20
11.836
 30
0.0
 10
1.0288
 20
11.836
 30
0.0
 10
1.0288
 20
11.836
 30
0.0
 10
0.7494
 20
11.836
 30
0.0
 10
0.7494
 20
11.836
 30
0.0
  0
SPLINE
  5
127
330
1F
100
AcDbEntity
  8
Ilustrace
 62
   250
100
AcDbSpline
210
0.0
220
0.0
230
1.0
 70
    11
 71
     3
 72
    64
 73
    60
 74
     0
 42
0.0000000001
 43
0.0000000001
 40
0.0
 40
0.0
 40
0.0
 40
0.0
 40
0.0625
 40
0.0625
 40
0.0625
 40
0.0625
 40
0.125
 40
0.125
 40
0.125
 40
0.125
 40
0.1875
 40
0.1875
 40
0.1875
 40
0.1875
 40
0.25
 40
0.25
 40
0.25
 40
0.25
 40
0.3125
 40
0.3125
 40
0.3125
 40
0.3125
 40
0.375
 40
0.375
 40
0.375
 40
0.375
 40
0.4375
 40
0.4375
 40
0.4375
 40
0.4375
 40
0.5
 40
0.5
 40
0.5
 40
0.5
 40
0.5625
 40
0.5625
 40
0.5625
 40
0.5625
 40
0.625
 40
0.625
 40
0.625
 40
0.625
 40
0.6875
 40
0.6875
 40
0.6875
 40
0.6875
 40
0.75
 40
0.75
 40
0.75
 40
0.75
 40
0.8125
 40
0.8125
 40
0.8125
 40
0.8125
 40
0.875
 40
0.875
 40
0.875
 40
0.875
 40
1.0
 40
1.0
 40
1.0
 40
1.0
 10
3.0894
 20
11.25
 30
0.0
 10
3.0888
 20
11.1595
 30
0.0
 10
3.0707
 20
11.08
 30
0.0
 10
3.0344
 20
11.0108
 30
0.0
 10
3.0344
 20
11.0108
 30
0.0
 10
2.9982
 20
10.9422
 30
0.0
 10
2.9478
 20
10.884
 30
0.0
 10
2.8824
 20
10.8368
 30
0.0
 10
2.8824
 20
10.8368
 30
0.0
 10
2.8171
 20
10.7895
 30
0.0
 10
2.7402
 20
10.754
 30
0.0
 10
2.6522
 20
10.7294
 30
0.0
 10
2.6522
 20
10.7294
 30
0.0
 10
2.5642
 20
10.7048
 30
0.0
 10
2.4679
 20
10.6925
 30
0.0
 10
2.3638
 20
10.6912
 30
0.0
 10
2.3638
 20
10.6912
 30
0.0
 10
2.3327
 20
10.6912
 30
0.0
 10
2.3055
 20
10.6951
 30
0.0
 10
2.281
 20
10.7016
 30
0.0
 10
2.281
 20
10.7016
 30
0.0
 10
2.257
 20
10.7081
 30
0.0
 10
2.2357
 20
10.7165
 30
0.0
 10
2.2163
 20
10.7262
 30
0.0
 10
2.2163
 20
10.7262
 30
0.0
 10
2.1535
 20
10.7579
 30
0.0
 10
2.0992
 20
10.7986
 30
0.0
 10
2.0527
 20
10.8497
 30
0.0
 10
2.0527
 20
10.8497
 30
0.0
 10
2.0067
 20
10.9001
 30
0.0
 10
1.9705
 20
10.9571
 30
0.0
 10
1.9447
 20
11.0204
 30
0.0
 10
1.9447
 20
11.0204
 30
0.0
 10
1.9194
 20
11.0838
 30
0.0
 10
1.9058
 20
11.1498
 30
0.0
 10
1.9058
 20
11.219
 30
0.0
 10
1.9058
 20
11.219
 30
0.0
 10
1.9065
 20
11.3244
 30
0.0
 10
1.9298
 20
11.4156
 30
0.0
 10
1.9757
 20
11.4939
 30
0.0
 10
1.9757
 20
11.4939
 30
0.0
 10
2.0216
 20
11.5715
 30
0.0
 10
2.0876
 20
11.6316
 30
0.0
 10
2.1736
 20
11.6743
 30
0.0
 10
2.1736
 20
11.6743
 30
0.0
 10
2.2596
 20
11.717
 30
0.0
 10
2.3631
 20
11.7383
 30
0.0
 10
2.4841
 20
11.739
 30
0.0
 10
2.4841
 20
11.739
 30
0.0
 10
2.605
 20
11.7383
 30
0.0
 10
2.711
 20
11.7177
 30
0.0
 10
2.8016
 20
11.6769
 30
0.0
 10
2.8016
 20
11.6769
 30
0.0
 10
2.8922
 20
11.6362
 30
0.0
 10
2.962
 20
11.5792
 30
0.0
 10
3.0125
 20
11.5062
 30
0.0
 10
3.0125
 20
11.5062
 30
0.0
 10
3.0629
 20
11.4331
 30
0.0
 10
3.0888
 20
11.3477
 30
0.0
 10
3.0894
 20
11.25
 30
0.0
  0
SPLINE
  5
128
330
1F
100
AcDbEntity
  8
Ilustrace
 62
   250
100
AcDbSpline
210
0.0
220
0.0
230
1.0
 70
    11
 71
     3
 72
    56
 73
    52
 74
     0
 42
0.0000000001
 43
0.0000000001
 40
0.0
 40
0.0
 40
0.0
 40
0.0
 40
0.0714285714285714
 40
0.0714285714285714
 40
0.0714285714285714
 40
0.0714285714285714
 40
0.1428571428571428
 40
0.1428571428571428
 40
0.1428571428571428
 40
0.1428571428571428
 40
0.2142857142857143
 40
0.2142857142857143
 40
0.2142857142857143
 40
0.2142857142857143
 40
0.2857142857142857
 40
0.2857142857142857
 40
0.2857142857142857
 40
0.2857142857142857
 40
0.3571428571428572
 40
0.3571428571428572
 40
0.3571428571428572
 40
0.3571428571428572
 40
0.4285714285714285
 40
0.4285714285714285
 40
0.4285714285714285
 40
0.4285714285714285
 40
0.5
 40
0.5
 40
0.5
 40
0.5
 40
0.5714285714285714
 40
0.5714285714285714
 40
0.5714285714285714
 40
0.5714285714285714
 40
0.6428571428571429
 40
0.6428571428571429
 40
0.6428571428571429
 40
0.6428571428571429
 40
0.7142857142857143
 40
0.7142857142857143
 40
0.7142857142857143
 40
0.7142857142857143
 40
0.7857142857142857
 40
0.7857142857142857
 40
0.7857142857142857
 40
0.7857142857142857
 40
0.8571428571428571
 40
0.8571428571428571
 40
0.8571428571428571
 40
0.8571428571428571
 40
1.0
 40
1.0
 40
1.0
 40
1.0
 10
0.7456
 20
13.233
 30
0.0
 10
0.7456
 20
13.1043
 30
0.0
 10
0.774
 20
12.9866
 30
0.0
 10
0.8309
 20
12.8792
 30
0.0
 10
0.8309
 20
12.8792
 30
0.0
 10
0.8878
 20
12.7719
 30
0.0
 10
0.9713
 20
12.6794
 30
0.0
 10
1.0825
 20
12.6005
 30
0.0
 10
1.0825
 20
12.6005
 30
0.0
 10
1.1938
 20
12.5216
 30
0.0
 10
1.3309
 20
12.4608
 30
0.0
 10
1.4939
 20
12.4174
 30
0.0
 10
1.4939
 20
12.4174
 30
0.0
 10
1.6568
 20
12.3747
 30
0.0
 10
1.8444
 20
12.3528
 30
0.0
 10
2.0572
 20
12.3521
 30
0.0
 10
2.0572
 20
12.3521
 30
0.0
 10
2.3359
 20
12.356
 30
0.0
 10
2.5714
 20
12.3929
 30
0.0
 10
2.7641
 20
12.4634
 30
0.0
 10
2.7641
 20
12.4634
 30
0.0
 10
2.9568
 20
12.5339
 30
0.0
 10
3.103
 20
12.6315
 30
0.0
 10
3.2026
 20
12.7557
 30
0.0
 10
3.2026
 20
12.7557
 30
0.0
 10
3.3022
 20
12.8799
 30
0.0
 10
3.3526
 20
13.0247
 30
0.0
 10
3.3533
 20
13.1903
 30
0.0
 10
3.3533
 20
13.1903
 30
0.0
 10
3.3526
 20
13.3759
 30
0.0
 10
3.3009
 20
13.5337
 30
0.0
 10
3.1987
 20
13.6644
 30
0.0
 10
3.1987
 20
13.6644
 30
0.0
 10
3.0965
 20
13.795
 30
0.0
 10
2.9465
 20
13.8946
 30
0.0
 10
2.7486
 20
13.9632
 30
0.0
 10
2.7486
 20
13.9632
 30
0.0
 10
2.5507
 20
14.0324
 30
0.0
 10
2.3088
 20
14.0667
 30
0.0
 10
2.0223
 20
14.0673
 30
0.0
 10
2.0223
 20
14.0673
 30
0.0
 10
1.7539
 20
14.0667
 30
0.0
 10
1.5243
 20
14.0337
 30
0.0
 10
1.3341
 20
13.9684
 30
0.0
 10
1.3341
 20
13.9684
 30
0.0
 10
1.144
 20
13.903
 30
0.0
 10
0.9984
 20
13.808
 30
0.0
 10
0.8982
 20
13.6838
 30
0.0
 10
0.8982
 20
13.6838
 30
0.0
 10
0.7973
 20
13.5596
 30
0.0
 10
0.7462
 20
13.4096
 30
0.0
 10
0.7456
 20
13.233
 30
0.0
  0
SPLINE
  5
129
330
1F
100
AcDbEntity
  8
Ilustrace
 62
   250
100
AcDbSpline
210
0.0
220
0.0
230
1.0
 70
    11
 71
     3
 72
    56
 73
    52
 74
     0
 42
0.0000000001
 43
0.0000000001
 40
0.0
 40
0.0
 40
0.0
 40
0.0
 40
0.0714285714285714
 40
0.0714285714285714
 40
0.0714285714285714
 40
0.0714285714285714
 40
0.1428571428571428
 40
0.1428571428571428
 40
0.1428571428571428
 40
0.1428571428571428
 40
0.2142857142857143
 40
0.2142857142857143
 40
0.2142857142857143
 40
0.2142857142857143
 40
0.2857142857142857
 40
0.2857142857142857
 40
0.2857142857142857
 40
0.2857142857142857
 40
0.3571428571428572
 40
0.3571428571428572
 40
0.3571428571428572
 40
0.3571428571428572
 40
0.4285714285714285
 40
0.4285714285714285
 40
0.4285714285714285
 40
0.4285714285714285
 40
0.5
 40
0.5
 40
0.5
 40
0.5
 40
0.5714285714285714
 40
0.5714285714285714
 40
0.5714285714285714
 40
0.5714285714285714
 40
0.6428571428571429
 40
0.6428571428571429
 40
0.6428571428571429
 40
0.6428571428571429
 40
0.7142857142857143
 40
0.7142857142857143
 40
0.7142857142857143
 40
0.7142857142857143
 40
0.7857142857142857
 40
0.7857142857142857
 40
0.7857142857142857
 40
0.7857142857142857
 40
0.8571428571428571
 40
0.8571428571428571
 40
0.8571428571428571
 40
0.8571428571428571
 40
1.0
 40
1.0
 40
1.0
 40
1.0
 10
1.0094
 20
13.2097
 30
0.0
 10
1.0101
 20
13.299
 30
0.0
 10
1.034
 20
13.3759
 30
0.0
 10
1.0825
 20
13.4406
 30
0.0
 10
1.0825
 20
13.4406
 30
0.0
 10
1.131
 20
13.5053
 30
0.0
 10
1.2002
 20
13.5583
 30
0.0
 10
1.2908
 20
13.5997
 30
0.0
 10
1.2908
 20
13.5997
 30
0.0
 10
1.3807
 20
13.6411
 30
0.0
 10
1.4893
 20
13.6722
 30
0.0
 10
1.6148
 20
13.6922
 30
0.0
 10
1.6148
 20
13.6922
 30
0.0
 10
1.7409
 20
13.7123
 30
0.0
 10
1.8819
 20
13.7219
 30
0.0
 10
2.0378
 20
13.7219
 30
0.0
 10
2.0378
 20
13.7219
 30
0.0
 10
2.2538
 20
13.7219
 30
0.0
 10
2.4401
 20
13.7032
 30
0.0
 10
2.5966
 20
13.6657
 30
0.0
 10
2.5966
 20
13.6657
 30
0.0
 10
2.7537
 20
13.6288
 30
0.0
 10
2.8747
 20
13.5719
 30
0.0
 10
2.9601
 20
13.4962
 30
0.0
 10
2.9601
 20
13.4962
 30
0.0
 10
3.0454
 20
13.4206
 30
0.0
 10
3.0881
 20
13.3248
 30
0.0
 10
3.0894
 20
13.2097
 30
0.0
 10
3.0894
 20
13.2097
 30
0.0
 10
3.0888
 20
13.1056
 30
0.0
 10
3.0487
 20
13.0157
 30
0.0
 10
2.9685
 20
12.9387
 30
0.0
 10
2.9685
 20
12.9387
 30
0.0
 10
2.8883
 20
12.8624
 30
0.0
 10
2.7719
 20
12.8036
 30
0.0
 10
2.6192
 20
12.7615
 30
0.0
 10
2.6192
 20
12.7615
 30
0.0
 10
2.4659
 20
12.7195
 30
0.0
 10
2.2803
 20
12.6981
 30
0.0
 10
2.0611
 20
12.6975
 30
0.0
 10
2.0611
 20
12.6975
 30
0.0
 10
1.8315
 20
12.6981
 30
0.0
 10
1.6394
 20
12.7208
 30
0.0
 10
1.4829
 20
12.7648
 30
0.0
 10
1.4829
 20
12.7648
 30
0.0
 10
1.327
 20
12.8087
 30
0.0
 10
1.2093
 20
12.8689
 30
0.0
 10
1.1291
 20
12.9458
 30
0.0
 10
1.1291
 20
12.9458
 30
0.0
 10
1.0495
 20
13.0228
 30
0.0
 10
1.0094
 20
13.1108
 30
0.0
 10
1.0094
 20
13.2097
 30
0.0
  0
SPLINE
  5
12A
330
1F
100
AcDbEntity
  8
Ilustrace
 62
   250
370
    15
100
AcDbSpline
210
0.0
220
0.0
230
1.0
 70
    24
 71
     3
 72
     8
 73
     4
 74
     0
 42
0.0000000001
 43
0.0000000001
 40
0.0
 40
0.0
 40
0.0
 40
0.0
 40
1.0
 40
1.0
 40
1.0
 40
1.0
 10
-1.1605
 20
22.6304
 30
0.0
 10
-1.1605
 20
22.6304
 30
0.0
 10
9.4523
 20
22.6304
 30
0.0
 10
9.4523
 20
22.6304
 30
0.0
  0
SPLINE
  5
12B
330
1F
100
AcDbEntity
  8
Ilustrace
 62
   250
370
    15
100
AcDbSpline
210
0.0
220
0.0
230
1.0
 70
    24
 71
     3
 72
     8
 73
     4
 74
     0
 42
0.0000000001
 43
0.0000000001
 40
0.0
 40
0.0
 40
0.0
 40
0.0
 40
1.0
 40
1.0
 40
1.0
 40
1.0
 10
-7.9955
 20
22.5863
 30
0.0
 10
-7.9955
 20
22.5863
 30
0.0
 10
-5.6735
 20
22.5863
 30
0.0
 10
-5.6735
 20
22.5863
 30
0.0
  0
SPLINE
  5
12C
330
1F
100
AcDbEntity
  8
Ilustrace
 62
   250
370
    15
100
AcDbSpline
210
0.0
220
0.0
230
1.0
 70
    24
 71
     3
 72
     8
 73
     4
 74
     0
 42
0.0000000001
 43
0.0000000001
 40
0.0
 40
0.0
 40
0.0
 40
0.0
 40
1.0
 40
1.0
 40
1.0
 40
1.0
 10
3.4307
 20
1.2795
 30
0.0
 10
3.4307
 20
1.2795
 30
0.0
 10
24.6897
 20
1.2795
 30
0.0
 10
24.6897
 20
1.2795
 30
0.0
  0
SPLINE
  5
12D
330
1F
100
AcDbEntity
  8
Ilustrace
 62
   250
370
    15
100
AcDbSpline
210
0.0
220
0.0
230
1.0
 70
    24
 71
     3
 72
     8
 73
     4
 74
     0
 42
0.0000000001
 43
0.0000000001
 40
0.0
 40
0.0
 40
0.0
 40
0.0
 40
1.0
 40
1.0
 40
1.0
 40
1.0
 10
-0.9397
 20
-1.0135
 30
0.0
 10
-0.9397
 20
-1.0135
 30
0.0
 10
30.5987
 20
-1.0135
 30
0.0
 10
30.5987
 20
-1.0135
 30
0.0
  0
SPLINE
  5
12E
330
1F
100
AcDbEntity
  8
Ilustrace
 62
   250
370
    15
100
AcDbSpline
210
0.0
220
0.0
230
1.0
 70
    24
 71
     3
 72
     8
 73
     4
 74
     0
 42
0.0000000001
 43
0.0000000001
 40
0.0
 40
0.0
 40
0.0
 40
0.0
 40
1.0
 40
1.0
 40
1.0
 40
1.0
 10
-26.9902
 20
-4.2987
 30
0.0
 10
-26.9902
 20
-4.2987
 30
0.0
 10
-5.6519
 20
-4.2987
 30
0.0
 10
-5.6519
 20
-4.2987
 30
0.0
  0
SPLINE
  5
12F
330
1F
100
AcDbEntity
  8
Ilustrace
 62
   250
370
    15
100
AcDbSpline
210
0.0
220
0.0
230
1.0
 70
    24
 71
     3
 72
     8
 73
     4
 74
     0
 42
0.0000000001
 43
0.0000000001
 40
0.0
 40
0.0
 40
0.0
 40
0.0
 40
1.0
 40
1.0
 40
1.0
 40
1.0
 10
-0.1938
 20
-0.868
 30
0.0
 10
-0.1938
 20
-0.868
 30
0.0
 10
-0.1938
 20
22.5973
 30
0.0
 10
-0.1938
 20
22.5973
 30
0.0
  0
SPLINE
  5
130
330
1F
100
AcDbEntity
  8
Ilustrace
 62
   250
100
AcDbSpline
210
0.0
220
0.0
230
1.0
 70
    11
 71
     3
 72
    68
 73
    64
 74
     0
 42
0.0000000001
 43
0.0000000001
 40
0.0
 40
0.0
 40
0.0
 40
0.0
 40
0.0588235294117647
 40
0.0588235294117647
 40
0.0588235294117647
 40
0.0588235294117647
 40
0.1176470588235294
 40
0.1176470588235294
 40
0.1176470588235294
 40
0.1176470588235294
 40
0.1764705882352941
 40
0.1764705882352941
 40
0.1764705882352941
 40
0.1764705882352941
 40
0.2352941176470588
 40
0.2352941176470588
 40
0.2352941176470588
 40
0.2352941176470588
 40
0.2941176470588235
 40
0.2941176470588235
 40
0.2941176470588235
 40
0.2941176470588235
 40
0.3529411764705883
 40
0.3529411764705883
 40
0.3529411764705883
 40
0.3529411764705883
 40
0.4117647058823529
 40
0.4117647058823529
 40
0.4117647058823529
 40
0.4117647058823529
 40
0.4705882352941176
 40
0.4705882352941176
 40
0.4705882352941176
 40
0.4705882352941176
 40
0.5294117647058824
 40
0.5294117647058824
 40
0.5294117647058824
 40
0.5294117647058824
 40
0.5882352941176471
 40
0.5882352941176471
 40
0.5882352941176471
 40
0.5882352941176471
 40
0.6470588235294118
 40
0.6470588235294118
 40
0.6470588235294118
 40
0.6470588235294118
 40
0.7058823529411765
 40
0.7058823529411765
 40
0.7058823529411765
 40
0.7058823529411765
 40
0.7647058823529411
 40
0.7647058823529411
 40
0.7647058823529411
 40
0.7647058823529411
 40
0.8235294117647058
 40
0.8235294117647058
 40
0.8235294117647058
 40
0.8235294117647058
 40
0.8823529411764706
 40
0.8823529411764706
 40
0.8823529411764706
 40
0.8823529411764706
 40
1.0
 40
1.0
 40
1.0
 40
1.0
 10
-4.3526
 20
8.509
 30
0.0
 10
-4.2711
 20
8.4469
 30
0.0
 10
-4.1786
 20
8.3868
 30
0.0
 10
-4.0738
 20
8.3273
 30
0.0
 10
-4.0738
 20
8.3273
 30
0.0
 10
-3.9697
 20
8.2678
 30
0.0
 10
-3.852
 20
8.2134
 30
0.0
 10
-3.722
 20
8.1649
 30
0.0
 10
-3.722
 20
8.1649
 30
0.0
 10
-3.592
 20
8.1158
 30
0.0
 10
-3.4471
 20
8.077
 30
0.0
 10
-3.2887
 20
8.0472
 30
0.0
 10
-3.2887
 20
8.0472
 30
0.0
 10
-3.1296
 20
8.0181
 30
0.0
 10
-2.9556
 20
8.0026
 30
0.0
 10
-2.7655
 20
8.0007
 30
0.0
 10
-2.7655
 20
8.0007
 30
0.0
 10
-2.5766
 20
8.0013
 30
0.0
 10
-2.4033
 20
8.0162
 30
0.0
 10
-2.2455
 20
8.0459
 30
0.0
 10
-2.2455
 20
8.0459
 30
0.0
 10
-2.0877
 20
8.075
 30
0.0
 10
-1.9441
 20
8.1145
 30
0.0
 10
-1.8147
 20
8.163
 30
0.0
 10
-1.8147
 20
8.163
 30
0.0
 10
-1.6854
 20
8.2121
 30
0.0
 10
-1.569
 20
8.2665
 30
0.0
 10
-1.4655
 20
8.3266
 30
0.0
 10
-1.4655
 20
8.3266
 30
0.0
 10
-1.362
 20
8.3861
 30
0.0
 10
-1.2702
 20
8.4469
 30
0.0
 10
-1.19
 20
8.509
 30
0.0
 10
-1.19
 20
8.509
 30
0.0
 10
-1.19
 20
8.509
 30
0.0
 10
-1.19
 20
8.7729
 30
0.0
 10
-1.19
 20
8.7729
 30
0.0
 10
-1.19
 20
8.7729
 30
0.0
 10
-1.3186
 20
8.681
 30
0.0
 10
-1.4609
 20
8.5989
 30
0.0
 10
-1.6162
 20
8.5265
 30
0.0
 10
-1.6162
 20
8.5265
 30
0.0
 10
-1.772
 20
8.4534
 30
0.0
 10
-1.9441
 20
8.3958
 30
0.0
 10
-2.1336
 20
8.3531
 30
0.0
 10
-2.1336
 20
8.3531
 30
0.0
 10
-2.3224
 20
8.3105
 30
0.0
 10
-2.532
 20
8.2885
 30
0.0
 10
-2.7616
 20
8.2878
 30
0.0
 10
-2.7616
 20
8.2878
 30
0.0
 10
-2.9963
 20
8.2885
 30
0.0
 10
-3.2104
 20
8.3092
 30
0.0
 10
-3.4025
 20
8.3506
 30
0.0
 10
-3.4025
 20
8.3506
 30
0.0
 10
-3.5952
 20
8.392
 30
0.0
 10
-3.7699
 20
8.4489
 30
0.0
 10
-3.9264
 20
8.5213
 30
0.0
 10
-3.9264
 20
8.5213
 30
0.0
 10
-4.0829
 20
8.5937
 30
0.0
 10
-4.2252
 20
8.6778
 30
0.0
 10
-4.3526
 20
8.7729
 30
0.0
 10
-4.3526
 20
8.7729
 30
0.0
 10
-4.3526
 20
8.7729
 30
0.0
 10
-4.3526
 20
8.509
 30
0.0
 10
-4.3526
 20
8.509
 30
0.0
  0
SPLINE
  5
131
330
1F
100
AcDbEntity
  8
Ilustrace
 62
   250
100
AcDbSpline
210
0.0
220
0.0
230
1.0
 70
    11
 71
     3
 72
   124
 73
   120
 74
     0
 42
0.0000000001
 43
0.0000000001
 40
0.0
 40
0.0
 40
0.0
 40
0.0
 40
0.032258064516129
 40
0.032258064516129
 40
0.032258064516129
 40
0.032258064516129
 40
0.0645161290322581
 40
0.0645161290322581
 40
0.0645161290322581
 40
0.0645161290322581
 40
0.0967741935483871
 40
0.0967741935483871
 40
0.0967741935483871
 40
0.0967741935483871
 40
0.1290322580645161
 40
0.1290322580645161
 40
0.1290322580645161
 40
0.1290322580645161
 40
0.1612903225806452
 40
0.1612903225806452
 40
0.1612903225806452
 40
0.1612903225806452
 40
0.1935483870967742
 40
0.1935483870967742
 40
0.1935483870967742
 40
0.1935483870967742
 40
0.2258064516129032
 40
0.2258064516129032
 40
0.2258064516129032
 40
0.2258064516129032
 40
0.2580645161290323
 40
0.2580645161290323
 40
0.2580645161290323
 40
0.2580645161290323
 40
0.2903225806451613
 40
0.2903225806451613
 40
0.2903225806451613
 40
0.2903225806451613
 40
0.3225806451612903
 40
0.3225806451612903
 40
0.3225806451612903
 40
0.3225806451612903
 40
0.3548387096774194
 40
0.3548387096774194
 40
0.3548387096774194
 40
0.3548387096774194
 40
0.3870967741935484
 40
0.3870967741935484
 40
0.3870967741935484
 40
0.3870967741935484
 40
0.4193548387096774
 40
0.4193548387096774
 40
0.4193548387096774
 40
0.4193548387096774
 40
0.4516129032258064
 40
0.4516129032258064
 40
0.4516129032258064
 40
0.4516129032258064
 40
0.4838709677419355
 40
0.4838709677419355
 40
0.4838709677419355
 40
0.4838709677419355
 40
0.5161290322580645
 40
0.5161290322580645
 40
0.5161290322580645
 40
0.5161290322580645
 40
0.5483870967741935
 40
0.5483870967741935
 40
0.5483870967741935
 40
0.5483870967741935
 40
0.5806451612903226
 40
0.5806451612903226
 40
0.5806451612903226
 40
0.5806451612903226
 40
0.6129032258064516
 40
0.6129032258064516
 40
0.6129032258064516
 40
0.6129032258064516
 40
0.6451612903225806
 40
0.6451612903225806
 40
0.6451612903225806
 40
0.6451612903225806
 40
0.6774193548387096
 40
0.6774193548387096
 40
0.6774193548387096
 40
0.6774193548387096
 40
0.7096774193548387
 40
0.7096774193548387
 40
0.7096774193548387
 40
0.7096774193548387
 40
0.7419354838709677
 40
0.7419354838709677
 40
0.7419354838709677
 40
0.7419354838709677
 40
0.7741935483870968
 40
0.7741935483870968
 40
0.7741935483870968
 40
0.7741935483870968
 40
0.8064516129032258
 40
0.8064516129032258
 40
0.8064516129032258
 40
0.8064516129032258
 40
0.8387096774193549
 40
0.8387096774193549
 40
0.8387096774193549
 40
0.8387096774193549
 40
0.8709677419354839
 40
0.8709677419354839
 40
0.8709677419354839
 40
0.8709677419354839
 40
0.9032258064516129
 40
0.9032258064516129
 40
0.9032258064516129
 40
0.9032258064516129
 40
0.9354838709677419
 40
0.9354838709677419
 40
0.9354838709677419
 40
0.9354838709677419
 40
1.0
 40
1.0
 40
1.0
 40
1.0
 10
-4.2207
 20
10.4687
 30
0.0
 10
-4.2207
 20
10.4376
 30
0.0
 10
-4.2194
 20
10.4008
 30
0.0
 10
-4.2168
 20
10.3594
 30
0.0
 10
-4.2168
 20
10.3594
 30
0.0
 10
-4.2142
 20
10.3173
 30
0.0
 10
-4.209
 20
10.2708
 30
0.0
 10
-4.2013
 20
10.2203
 30
0.0
 10
-4.2013
 20
10.2203
 30
0.0
 10
-4.1818
 20
10.0606
 30
0.0
 10
-4.1405
 20
9.9125
 30
0.0
 10
-4.0777
 20
9.776
 30
0.0
 10
-4.0777
 20
9.776
 30
0.0
 10
-4.015
 20
9.6395
 30
0.0
 10
-3.9322
 20
9.5186
 30
0.0
 10
-3.8287
 20
9.4132
 30
0.0
 10
-3.8287
 20
9.4132
 30
0.0
 10
-3.7459
 20
9.3285
 30
0.0
 10
-3.6476
 20
9.2541
 30
0.0
 10
-3.5338
 20
9.1907
 30
0.0
 10
-3.5338
 20
9.1907
 30
0.0
 10
-3.4206
 20
9.1267
 30
0.0
 10
-3.2932
 20
9.0769
 30
0.0
 10
-3.1522
 20
9.0406
 30
0.0
 10
-3.1522
 20
9.0406
 30
0.0
 10
-3.0112
 20
9.0051
 30
0.0
 10
-2.8573
 20
8.987
 30
0.0
 10
-2.6917
 20
8.9863
 30
0.0
 10
-2.6917
 20
8.9863
 30
0.0
 10
-2.5274
 20
8.987
 30
0.0
 10
-2.3793
 20
9.0083
 30
0.0
 10
-2.2474
 20
9.0497
 30
0.0
 10
-2.2474
 20
9.0497
 30
0.0
 10
-2.1148
 20
9.0917
 30
0.0
 10
-2.0023
 20
9.1519
 30
0.0
 10
-1.9085
 20
9.2301
 30
0.0
 10
-1.9085
 20
9.2301
 30
0.0
 10
-1.8147
 20
9.3078
 30
0.0
 10
-1.7423
 20
9.4015
 30
0.0
 10
-1.6925
 20
9.5102
 30
0.0
 10
-1.6925
 20
9.5102
 30
0.0
 10
-1.6427
 20
9.6188
 30
0.0
 10
-1.6175
 20
9.7404
 30
0.0
 10
-1.6168
 20
9.875
 30
0.0
 10
-1.6168
 20
9.875
 30
0.0
 10
-1.6181
 20
10.0069
 30
0.0
 10
-1.6427
 20
10.1253
 30
0.0
 10
-1.6905
 20
10.2294
 30
0.0
 10
-1.6905
 20
10.2294
 30
0.0
 10
-1.739
 20
10.3329
 30
0.0
 10
-1.805
 20
10.4215
 30
0.0
 10
-1.8884
 20
10.4939
 30
0.0
 10
-1.8884
 20
10.4939
 30
0.0
 10
-1.9719
 20
10.5664
 30
0.0
 10
-2.067
 20
10.622
 30
0.0
 10
-2.1737
 20
10.6595
 30
0.0
 10
-2.1737
 20
10.6595
 30
0.0
 10
-2.2797
 20
10.6976
 30
0.0
 10
-2.3916
 20
10.717
 30
0.0
 10
-2.5093
 20
10.717
 30
0.0
 10
-2.5093
 20
10.717
 30
0.0
 10
-2.6322
 20
10.7164
 30
0.0
 10
-2.7435
 20
10.6976
 30
0.0
 10
-2.8431
 20
10.6608
 30
0.0
 10
-2.8431
 20
10.6608
 30
0.0
 10
-2.9427
 20
10.6239
 30
0.0
 10
-3.0287
 20
10.5715
 30
0.0
 10
-3.1005
 20
10.5043
 30
0.0
 10
-3.1005
 20
10.5043
 30
0.0
 10
-3.1716
 20
10.4363
 30
0.0
 10
-3.2272
 20
10.3561
 30
0.0
 10
-3.2654
 20
10.2637
 30
0.0
 10
-3.2654
 20
10.2637
 30
0.0
 10
-3.3042
 20
10.1712
 30
0.0
 10
-3.3236
 20
10.0683
 30
0.0
 10
-3.3243
 20
9.9565
 30
0.0
 10
-3.3243
 20
9.9565
 30
0.0
 10
-3.3236
 20
9.8633
 30
0.0
 10
-3.31
 20
9.778
 30
0.0
 10
-3.2842
 20
9.7003
 30
0.0
 10
-3.2842
 20
9.7003
 30
0.0
 10
-3.2576
 20
9.6227
 30
0.0
 10
-3.2227
 20
9.5535
 30
0.0
 10
-3.1781
 20
9.4934
 30
0.0
 10
-3.1781
 20
9.4934
 30
0.0
 10
-3.1341
 20
9.4339
 30
0.0
 10
-3.0843
 20
9.3834
 30
0.0
 10
-3.0293
 20
9.3433
 30
0.0
 10
-3.0293
 20
9.3433
 30
0.0
 10
-3.0293
 20
9.3433
 30
0.0
 10
-3.0293
 20
9.3356
 30
0.0
 10
-3.0293
 20
9.3356
 30
0.0
 10
-3.0293
 20
9.3356
 30
0.0
 10
-3.1348
 20
9.3498
 30
0.0
 10
-3.2363
 20
9.3782
 30
0.0
 10
-3.334
 20
9.4216
 30
0.0
 10
-3.334
 20
9.4216
 30
0.0
 10
-3.431
 20
9.4643
 30
0.0
 10
-3.5202
 20
9.5212
 30
0.0
 10
-3.6011
 20
9.5936
 30
0.0
 10
-3.6011
 20
9.5936
 30
0.0
 10
-3.6813
 20
9.666
 30
0.0
 10
-3.7498
 20
9.7534
 30
0.0
 10
-3.8055
 20
9.8562
 30
0.0
 10
-3.8055
 20
9.8562
 30
0.0
 10
-3.8611
 20
9.959
 30
0.0
 10
-3.8999
 20
10.078
 30
0.0
 10
-3.9219
 20
10.2126
 30
0.0
 10
-3.9219
 20
10.2126
 30
0.0
 10
-3.9296
 20
10.2611
 30
0.0
 10
-3.9354
 20
10.3077
 30
0.0
 10
-3.9387
 20
10.351
 30
0.0
 10
-3.9387
 20
10.351
 30
0.0
 10
-3.9426
 20
10.3943
 30
0.0
 10
-3.9432
 20
10.4338
 30
0.0
 10
-3.9413
 20
10.4687
 30
0.0
 10
-3.9413
 20
10.4687
 30
0.0
 10
-3.9413
 20
10.4687
 30
0.0
 10
-4.2207
 20
10.4687
 30
0.0
 10
-4.2207
 20
10.4687
 30
0.0
  0
SPLINE
  5
132
330
1F
100
AcDbEntity
  8
Ilustrace
 62
   250
100
AcDbSpline
210
0.0
220
0.0
230
1.0
 70
    11
 71
     3
 72
    64
 73
    60
 74
     0
 42
0.0000000001
 43
0.0000000001
 40
0.0
 40
0.0
 40
0.0
 40
0.0
 40
0.0625
 40
0.0625
 40
0.0625
 40
0.0625
 40
0.125
 40
0.125
 40
0.125
 40
0.125
 40
0.1875
 40
0.1875
 40
0.1875
 40
0.1875
 40
0.25
 40
0.25
 40
0.25
 40
0.25
 40
0.3125
 40
0.3125
 40
0.3125
 40
0.3125
 40
0.375
 40
0.375
 40
0.375
 40
0.375
 40
0.4375
 40
0.4375
 40
0.4375
 40
0.4375
 40
0.5
 40
0.5
 40
0.5
 40
0.5
 40
0.5625
 40
0.5625
 40
0.5625
 40
0.5625
 40
0.625
 40
0.625
 40
0.625
 40
0.625
 40
0.6875
 40
0.6875
 40
0.6875
 40
0.6875
 40
0.75
 40
0.75
 40
0.75
 40
0.75
 40
0.8125
 40
0.8125
 40
0.8125
 40
0.8125
 40
0.875
 40
0.875
 40
0.875
 40
0.875
 40
1.0
 40
1.0
 40
1.0
 40
1.0
 10
-1.8807
 20
9.8827
 30
0.0
 10
-1.8813
 20
9.7922
 30
0.0
 10
-1.8994
 20
9.7126
 30
0.0
 10
-1.9357
 20
9.6434
 30
0.0
 10
-1.9357
 20
9.6434
 30
0.0
 10
-1.9719
 20
9.5749
 30
0.0
 10
-2.0223
 20
9.5166
 30
0.0
 10
-2.0877
 20
9.4694
 30
0.0
 10
-2.0877
 20
9.4694
 30
0.0
 10
-2.153
 20
9.4222
 30
0.0
 10
-2.2299
 20
9.3867
 30
0.0
 10
-2.3179
 20
9.3621
 30
0.0
 10
-2.3179
 20
9.3621
 30
0.0
 10
-2.4059
 20
9.3375
 30
0.0
 10
-2.5022
 20
9.3252
 30
0.0
 10
-2.6063
 20
9.3239
 30
0.0
 10
-2.6063
 20
9.3239
 30
0.0
 10
-2.6374
 20
9.3239
 30
0.0
 10
-2.6646
 20
9.3278
 30
0.0
 10
-2.6891
 20
9.3343
 30
0.0
 10
-2.6891
 20
9.3343
 30
0.0
 10
-2.7131
 20
9.3407
 30
0.0
 10
-2.7344
 20
9.3491
 30
0.0
 10
-2.7538
 20
9.3589
 30
0.0
 10
-2.7538
 20
9.3589
 30
0.0
 10
-2.8166
 20
9.3905
 30
0.0
 10
-2.8709
 20
9.4313
 30
0.0
 10
-2.9174
 20
9.4824
 30
0.0
 10
-2.9174
 20
9.4824
 30
0.0
 10
-2.9634
 20
9.5328
 30
0.0
 10
-2.9996
 20
9.5897
 30
0.0
 10
-3.0254
 20
9.6531
 30
0.0
 10
-3.0254
 20
9.6531
 30
0.0
 10
-3.0507
 20
9.7165
 30
0.0
 10
-3.0643
 20
9.7825
 30
0.0
 10
-3.0643
 20
9.8517
 30
0.0
 10
-3.0643
 20
9.8517
 30
0.0
 10
-3.0636
 20
9.9571
 30
0.0
 10
-3.0403
 20
10.0483
 30
0.0
 10
-2.9944
 20
10.1265
 30
0.0
 10
-2.9944
 20
10.1265
 30
0.0
 10
-2.9485
 20
10.2042
 30
0.0
 10
-2.8825
 20
10.2643
 30
0.0
 10
-2.7965
 20
10.307
 30
0.0
 10
-2.7965
 20
10.307
 30
0.0
 10
-2.7105
 20
10.3497
 30
0.0
 10
-2.607
 20
10.371
 30
0.0
 10
-2.486
 20
10.3717
 30
0.0
 10
-2.486
 20
10.3717
 30
0.0
 10
-2.3651
 20
10.371
 30
0.0
 10
-2.2591
 20
10.3503
 30
0.0
 10
-2.1685
 20
10.3096
 30
0.0
 10
-2.1685
 20
10.3096
 30
0.0
 10
-2.0779
 20
10.2688
 30
0.0
 10
-2.0081
 20
10.2119
 30
0.0
 10
-1.9576
 20
10.1388
 30
0.0
 10
-1.9576
 20
10.1388
 30
0.0
 10
-1.9072
 20
10.0658
 30
0.0
 10
-1.8813
 20
9.9804
 30
0.0
 10
-1.8807
 20
9.8827
 30
0.0
  0
SPLINE
  5
133
330
1F
100
AcDbEntity
  8
Ilustrace
 62
   250
100
AcDbSpline
210
0.0
220
0.0
230
1.0
 70
    11
 71
     3
 72
   124
 73
   120
 74
     0
 42
0.0000000001
 43
0.0000000001
 40
0.0
 40
0.0
 40
0.0
 40
0.0
 40
0.032258064516129
 40
0.032258064516129
 40
0.032258064516129
 40
0.032258064516129
 40
0.0645161290322581
 40
0.0645161290322581
 40
0.0645161290322581
 40
0.0645161290322581
 40
0.0967741935483871
 40
0.0967741935483871
 40
0.0967741935483871
 40
0.0967741935483871
 40
0.1290322580645161
 40
0.1290322580645161
 40
0.1290322580645161
 40
0.1290322580645161
 40
0.1612903225806452
 40
0.1612903225806452
 40
0.1612903225806452
 40
0.1612903225806452
 40
0.1935483870967742
 40
0.1935483870967742
 40
0.1935483870967742
 40
0.1935483870967742
 40
0.2258064516129032
 40
0.2258064516129032
 40
0.2258064516129032
 40
0.2258064516129032
 40
0.2580645161290323
 40
0.2580645161290323
 40
0.2580645161290323
 40
0.2580645161290323
 40
0.2903225806451613
 40
0.2903225806451613
 40
0.2903225806451613
 40
0.2903225806451613
 40
0.3225806451612903
 40
0.3225806451612903
 40
0.3225806451612903
 40
0.3225806451612903
 40
0.3548387096774194
 40
0.3548387096774194
 40
0.3548387096774194
 40
0.3548387096774194
 40
0.3870967741935484
 40
0.3870967741935484
 40
0.3870967741935484
 40
0.3870967741935484
 40
0.4193548387096774
 40
0.4193548387096774
 40
0.4193548387096774
 40
0.4193548387096774
 40
0.4516129032258064
 40
0.4516129032258064
 40
0.4516129032258064
 40
0.4516129032258064
 40
0.4838709677419355
 40
0.4838709677419355
 40
0.4838709677419355
 40
0.4838709677419355
 40
0.5161290322580645
 40
0.5161290322580645
 40
0.5161290322580645
 40
0.5161290322580645
 40
0.5483870967741935
 40
0.5483870967741935
 40
0.5483870967741935
 40
0.5483870967741935
 40
0.5806451612903226
 40
0.5806451612903226
 40
0.5806451612903226
 40
0.5806451612903226
 40
0.6129032258064516
 40
0.6129032258064516
 40
0.6129032258064516
 40
0.6129032258064516
 40
0.6451612903225806
 40
0.6451612903225806
 40
0.6451612903225806
 40
0.6451612903225806
 40
0.6774193548387096
 40
0.6774193548387096
 40
0.6774193548387096
 40
0.6774193548387096
 40
0.7096774193548387
 40
0.7096774193548387
 40
0.7096774193548387
 40
0.7096774193548387
 40
0.7419354838709677
 40
0.7419354838709677
 40
0.7419354838709677
 40
0.7419354838709677
 40
0.7741935483870968
 40
0.7741935483870968
 40
0.7741935483870968
 40
0.7741935483870968
 40
0.8064516129032258
 40
0.8064516129032258
 40
0.8064516129032258
 40
0.8064516129032258
 40
0.8387096774193549
 40
0.8387096774193549
 40
0.8387096774193549
 40
0.8387096774193549
 40
0.8709677419354839
 40
0.8709677419354839
 40
0.8709677419354839
 40
0.8709677419354839
 40
0.9032258064516129
 40
0.9032258064516129
 40
0.9032258064516129
 40
0.9032258064516129
 40
0.9354838709677419
 40
0.9354838709677419
 40
0.9354838709677419
 40
0.9354838709677419
 40
1.0
 40
1.0
 40
1.0
 40
1.0
 10
-4.2207
 20
12.4594
 30
0.0
 10
-4.2207
 20
12.4284
 30
0.0
 10
-4.2194
 20
12.3915
 30
0.0
 10
-4.2168
 20
12.3501
 30
0.0
 10
-4.2168
 20
12.3501
 30
0.0
 10
-4.2142
 20
12.3081
 30
0.0
 10
-4.209
 20
12.2615
 30
0.0
 10
-4.2013
 20
12.211
 30
0.0
 10
-4.2013
 20
12.211
 30
0.0
 10
-4.1818
 20
12.0513
 30
0.0
 10
-4.1405
 20
11.9032
 30
0.0
 10
-4.0777
 20
11.7667
 30
0.0
 10
-4.0777
 20
11.7667
 30
0.0
 10
-4.015
 20
11.6303
 30
0.0
 10
-3.9322
 20
11.5093
 30
0.0
 10
-3.8287
 20
11.4039
 30
0.0
 10
-3.8287
 20
11.4039
 30
0.0
 10
-3.7459
 20
11.3192
 30
0.0
 10
-3.6476
 20
11.2448
 30
0.0
 10
-3.5338
 20
11.1814
 30
0.0
 10
-3.5338
 20
11.1814
 30
0.0
 10
-3.4206
 20
11.1174
 30
0.0
 10
-3.2932
 20
11.0676
 30
0.0
 10
-3.1522
 20
11.0314
 30
0.0
 10
-3.1522
 20
11.0314
 30
0.0
 10
-3.0112
 20
10.9958
 30
0.0
 10
-2.8573
 20
10.9777
 30
0.0
 10
-2.6917
 20
10.977
 30
0.0
 10
-2.6917
 20
10.977
 30
0.0
 10
-2.5274
 20
10.9777
 30
0.0
 10
-2.3793
 20
10.999
 30
0.0
 10
-2.2474
 20
11.0404
 30
0.0
 10
-2.2474
 20
11.0404
 30
0.0
 10
-2.1148
 20
11.0825
 30
0.0
 10
-2.0023
 20
11.1426
 30
0.0
 10
-1.9085
 20
11.2209
 30
0.0
 10
-1.9085
 20
11.2209
 30
0.0
 10
-1.8147
 20
11.2985
 30
0.0
 10
-1.7423
 20
11.3923
 30
0.0
 10
-1.6925
 20
11.5009
 30
0.0
 10
-1.6925
 20
11.5009
 30
0.0
 10
-1.6427
 20
11.6096
 30
0.0
 10
-1.6175
 20
11.7312
 30
0.0
 10
-1.6168
 20
11.8657
 30
0.0
 10
-1.6168
 20
11.8657
 30
0.0
 10
-1.6181
 20
11.9976
 30
0.0
 10
-1.6427
 20
12.116
 30
0.0
 10
-1.6905
 20
12.2201
 30
0.0
 10
-1.6905
 20
12.2201
 30
0.0
 10
-1.739
 20
12.3236
 30
0.0
 10
-1.805
 20
12.4122
 30
0.0
 10
-1.8884
 20
12.4846
 30
0.0
 10
-1.8884
 20
12.4846
 30
0.0
 10
-1.9719
 20
12.5571
 30
0.0
 10
-2.067
 20
12.6127
 30
0.0
 10
-2.1737
 20
12.6502
 30
0.0
 10
-2.1737
 20
12.6502
 30
0.0
 10
-2.2797
 20
12.6884
 30
0.0
 10
-2.3916
 20
12.7078
 30
0.0
 10
-2.5093
 20
12.7078
 30
0.0
 10
-2.5093
 20
12.7078
 30
0.0
 10
-2.6322
 20
12.7071
 30
0.0
 10
-2.7435
 20
12.6884
 30
0.0
 10
-2.8431
 20
12.6515
 30
0.0
 10
-2.8431
 20
12.6515
 30
0.0
 10
-2.9427
 20
12.6146
 30
0.0
 10
-3.0287
 20
12.5622
 30
0.0
 10
-3.1005
 20
12.495
 30
0.0
 10
-3.1005
 20
12.495
 30
0.0
 10
-3.1716
 20
12.4271
 30
0.0
 10
-3.2272
 20
12.3469
 30
0.0
 10
-3.2654
 20
12.2544
 30
0.0
 10
-3.2654
 20
12.2544
 30
0.0
 10
-3.3042
 20
12.1619
 30
0.0
 10
-3.3236
 20
12.0591
 30
0.0
 10
-3.3243
 20
11.9472
 30
0.0
 10
-3.3243
 20
11.9472
 30
0.0
 10
-3.3236
 20
11.854
 30
0.0
 10
-3.31
 20
11.7687
 30
0.0
 10
-3.2842
 20
11.6911
 30
0.0
 10
-3.2842
 20
11.6911
 30
0.0
 10
-3.2576
 20
11.6134
 30
0.0
 10
-3.2227
 20
11.5442
 30
0.0
 10
-3.1781
 20
11.4841
 30
0.0
 10
-3.1781
 20
11.4841
 30
0.0
 10
-3.1341
 20
11.4246
 30
0.0
 10
-3.0843
 20
11.3741
 30
0.0
 10
-3.0293
 20
11.334
 30
0.0
 10
-3.0293
 20
11.334
 30
0.0
 10
-3.0293
 20
11.334
 30
0.0
 10
-3.0293
 20
11.3263
 30
0.0
 10
-3.0293
 20
11.3263
 30
0.0
 10
-3.0293
 20
11.3263
 30
0.0
 10
-3.1348
 20
11.3405
 30
0.0
 10
-3.2363
 20
11.369
 30
0.0
 10
-3.334
 20
11.4123
 30
0.0
 10
-3.334
 20
11.4123
 30
0.0
 10
-3.431
 20
11.455
 30
0.0
 10
-3.5202
 20
11.5119
 30
0.0
 10
-3.6011
 20
11.5843
 30
0.0
 10
-3.6011
 20
11.5843
 30
0.0
 10
-3.6813
 20
11.6568
 30
0.0
 10
-3.7498
 20
11.7441
 30
0.0
 10
-3.8055
 20
11.8469
 30
0.0
 10
-3.8055
 20
11.8469
 30
0.0
 10
-3.8611
 20
11.9498
 30
0.0
 10
-3.8999
 20
12.0687
 30
0.0
 10
-3.9219
 20
12.2033
 30
0.0
 10
-3.9219
 20
12.2033
 30
0.0
 10
-3.9296
 20
12.2518
 30
0.0
 10
-3.9354
 20
12.2984
 30
0.0
 10
-3.9387
 20
12.3417
 30
0.0
 10
-3.9387
 20
12.3417
 30
0.0
 10
-3.9426
 20
12.385
 30
0.0
 10
-3.9432
 20
12.4245
 30
0.0
 10
-3.9413
 20
12.4594
 30
0.0
 10
-3.9413
 20
12.4594
 30
0.0
 10
-3.9413
 20
12.4594
 30
0.0
 10
-4.2207
 20
12.4594
 30
0.0
 10
-4.2207
 20
12.4594
 30
0.0
  0
SPLINE
  5
134
330
1F
100
AcDbEntity
  8
Ilustrace
 62
   250
100
AcDbSpline
210
0.0
220
0.0
230
1.0
 70
    11
 71
     3
 72
    64
 73
    60
 74
     0
 42
0.0000000001
 43
0.0000000001
 40
0.0
 40
0.0
 40
0.0
 40
0.0
 40
0.0625
 40
0.0625
 40
0.0625
 40
0.0625
 40
0.125
 40
0.125
 40
0.125
 40
0.125
 40
0.1875
 40
0.1875
 40
0.1875
 40
0.1875
 40
0.25
 40
0.25
 40
0.25
 40
0.25
 40
0.3125
 40
0.3125
 40
0.3125
 40
0.3125
 40
0.375
 40
0.375
 40
0.375
 40
0.375
 40
0.4375
 40
0.4375
 40
0.4375
 40
0.4375
 40
0.5
 40
0.5
 40
0.5
 40
0.5
 40
0.5625
 40
0.5625
 40
0.5625
 40
0.5625
 40
0.625
 40
0.625
 40
0.625
 40
0.625
 40
0.6875
 40
0.6875
 40
0.6875
 40
0.6875
 40
0.75
 40
0.75
 40
0.75
 40
0.75
 40
0.8125
 40
0.8125
 40
0.8125
 40
0.8125
 40
0.875
 40
0.875
 40
0.875
 40
0.875
 40
1.0
 40
1.0
 40
1.0
 40
1.0
 10
-1.8807
 20
11.8734
 30
0.0
 10
-1.8813
 20
11.7829
 30
0.0
 10
-1.8994
 20
11.7033
 30
0.0
 10
-1.9357
 20
11.6341
 30
0.0
 10
-1.9357
 20
11.6341
 30
0.0
 10
-1.9719
 20
11.5656
 30
0.0
 10
-2.0223
 20
11.5074
 30
0.0
 10
-2.0877
 20
11.4602
 30
0.0
 10
-2.0877
 20
11.4602
 30
0.0
 10
-2.153
 20
11.4129
 30
0.0
 10
-2.2299
 20
11.3774
 30
0.0
 10
-2.3179
 20
11.3528
 30
0.0
 10
-2.3179
 20
11.3528
 30
0.0
 10
-2.4059
 20
11.3282
 30
0.0
 10
-2.5022
 20
11.3159
 30
0.0
 10
-2.6063
 20
11.3146
 30
0.0
 10
-2.6063
 20
11.3146
 30
0.0
 10
-2.6374
 20
11.3146
 30
0.0
 10
-2.6646
 20
11.3185
 30
0.0
 10
-2.6891
 20
11.325
 30
0.0
 10
-2.6891
 20
11.325
 30
0.0
 10
-2.7131
 20
11.3315
 30
0.0
 10
-2.7344
 20
11.3399
 30
0.0
 10
-2.7538
 20
11.3496
 30
0.0
 10
-2.7538
 20
11.3496
 30
0.0
 10
-2.8166
 20
11.3813
 30
0.0
 10
-2.8709
 20
11.422
 30
0.0
 10
-2.9174
 20
11.4731
 30
0.0
 10
-2.9174
 20
11.4731
 30
0.0
 10
-2.9634
 20
11.5235
 30
0.0
 10
-2.9996
 20
11.5805
 30
0.0
 10
-3.0254
 20
11.6438
 30
0.0
 10
-3.0254
 20
11.6438
 30
0.0
 10
-3.0507
 20
11.7072
 30
0.0
 10
-3.0643
 20
11.7732
 30
0.0
 10
-3.0643
 20
11.8424
 30
0.0
 10
-3.0643
 20
11.8424
 30
0.0
 10
-3.0636
 20
11.9478
 30
0.0
 10
-3.0403
 20
12.039
 30
0.0
 10
-2.9944
 20
12.1173
 30
0.0
 10
-2.9944
 20
12.1173
 30
0.0
 10
-2.9485
 20
12.1949
 30
0.0
 10
-2.8825
 20
12.255
 30
0.0
 10
-2.7965
 20
12.2977
 30
0.0
 10
-2.7965
 20
12.2977
 30
0.0
 10
-2.7105
 20
12.3404
 30
0.0
 10
-2.607
 20
12.3617
 30
0.0
 10
-2.486
 20
12.3624
 30
0.0
 10
-2.486
 20
12.3624
 30
0.0
 10
-2.3651
 20
12.3617
 30
0.0
 10
-2.2591
 20
12.341
 30
0.0
 10
-2.1685
 20
12.3003
 30
0.0
 10
-2.1685
 20
12.3003
 30
0.0
 10
-2.0779
 20
12.2596
 30
0.0
 10
-2.0081
 20
12.2026
 30
0.0
 10
-1.9576
 20
12.1296
 30
0.0
 10
-1.9576
 20
12.1296
 30
0.0
 10
-1.9072
 20
12.0565
 30
0.0
 10
-1.8813
 20
11.9711
 30
0.0
 10
-1.8807
 20
11.8734
 30
0.0
  0
SPLINE
  5
135
330
1F
100
AcDbEntity
  8
Ilustrace
 62
   250
100
AcDbSpline
210
0.0
220
0.0
230
1.0
 70
    11
 71
     3
 72
    68
 73
    64
 74
     0
 42
0.0000000001
 43
0.0000000001
 40
0.0
 40
0.0
 40
0.0
 40
0.0
 40
0.0588235294117647
 40
0.0588235294117647
 40
0.0588235294117647
 40
0.0588235294117647
 40
0.1176470588235294
 40
0.1176470588235294
 40
0.1176470588235294
 40
0.1176470588235294
 40
0.1764705882352941
 40
0.1764705882352941
 40
0.1764705882352941
 40
0.1764705882352941
 40
0.2352941176470588
 40
0.2352941176470588
 40
0.2352941176470588
 40
0.2352941176470588
 40
0.2941176470588235
 40
0.2941176470588235
 40
0.2941176470588235
 40
0.2941176470588235
 40
0.3529411764705883
 40
0.3529411764705883
 40
0.3529411764705883
 40
0.3529411764705883
 40
0.4117647058823529
 40
0.4117647058823529
 40
0.4117647058823529
 40
0.4117647058823529
 40
0.4705882352941176
 40
0.4705882352941176
 40
0.4705882352941176
 40
0.4705882352941176
 40
0.5294117647058824
 40
0.5294117647058824
 40
0.5294117647058824
 40
0.5294117647058824
 40
0.5882352941176471
 40
0.5882352941176471
 40
0.5882352941176471
 40
0.5882352941176471
 40
0.6470588235294118
 40
0.6470588235294118
 40
0.6470588235294118
 40
0.6470588235294118
 40
0.7058823529411765
 40
0.7058823529411765
 40
0.7058823529411765
 40
0.7058823529411765
 40
0.7647058823529411
 40
0.7647058823529411
 40
0.7647058823529411
 40
0.7647058823529411
 40
0.8235294117647058
 40
0.8235294117647058
 40
0.8235294117647058
 40
0.8235294117647058
 40
0.8823529411764706
 40
0.8823529411764706
 40
0.8823529411764706
 40
0.8823529411764706
 40
1.0
 40
1.0
 40
1.0
 40
1.0
 10
-1.19
 20
13.1773
 30
0.0
 10
-1.2714
 20
13.2394
 30
0.0
 10
-1.3639
 20
13.2995
 30
0.0
 10
-1.468
 20
13.3597
 30
0.0
 10
-1.468
 20
13.3597
 30
0.0
 10
-1.5722
 20
13.4192
 30
0.0
 10
-1.6886
 20
13.4729
 30
0.0
 10
-1.8186
 20
13.522
 30
0.0
 10
-1.8186
 20
13.522
 30
0.0
 10
-1.9486
 20
13.5705
 30
0.0
 10
-2.0922
 20
13.6093
 30
0.0
 10
-2.2506
 20
13.6391
 30
0.0
 10
-2.2506
 20
13.6391
 30
0.0
 10
-2.4091
 20
13.6682
 30
0.0
 10
-2.5831
 20
13.6837
 30
0.0
 10
-2.7732
 20
13.6857
 30
0.0
 10
-2.7732
 20
13.6857
 30
0.0
 10
-2.9634
 20
13.685
 30
0.0
 10
-3.1373
 20
13.6701
 30
0.0
 10
-3.2964
 20
13.6404
 30
0.0
 10
-3.2964
 20
13.6404
 30
0.0
 10
-3.4549
 20
13.6113
 30
0.0
 10
-3.5991
 20
13.5725
 30
0.0
 10
-3.7291
 20
13.5233
 30
0.0
 10
-3.7291
 20
13.5233
 30
0.0
 10
-3.8585
 20
13.4742
 30
0.0
 10
-3.9749
 20
13.4198
 30
0.0
 10
-4.0784
 20
13.3597
 30
0.0
 10
-4.0784
 20
13.3597
 30
0.0
 10
-4.1818
 20
13.3002
 30
0.0
 10
-4.273
 20
13.2394
 30
0.0
 10
-4.3526
 20
13.1773
 30
0.0
 10
-4.3526
 20
13.1773
 30
0.0
 10
-4.3526
 20
13.1773
 30
0.0
 10
-4.3526
 20
12.9134
 30
0.0
 10
-4.3526
 20
12.9134
 30
0.0
 10
-4.3526
 20
12.9134
 30
0.0
 10
-4.2239
 20
13.0059
 30
0.0
 10
-4.0816
 20
13.0887
 30
0.0
 10
-3.9257
 20
13.1618
 30
0.0
 10
-3.9257
 20
13.1618
 30
0.0
 10
-3.7699
 20
13.2342
 30
0.0
 10
-3.5972
 20
13.2918
 30
0.0
 10
-3.407
 20
13.3338
 30
0.0
 10
-3.407
 20
13.3338
 30
0.0
 10
-3.2169
 20
13.3759
 30
0.0
 10
-3.0054
 20
13.3978
 30
0.0
 10
-2.7732
 20
13.3985
 30
0.0
 10
-2.7732
 20
13.3985
 30
0.0
 10
-2.541
 20
13.3978
 30
0.0
 10
-2.3289
 20
13.3759
 30
0.0
 10
-2.1375
 20
13.3332
 30
0.0
 10
-2.1375
 20
13.3332
 30
0.0
 10
-1.946
 20
13.2905
 30
0.0
 10
-1.7727
 20
13.2329
 30
0.0
 10
-1.6162
 20
13.1598
 30
0.0
 10
-1.6162
 20
13.1598
 30
0.0
 10
-1.4597
 20
13.0874
 30
0.0
 10
-1.3174
 20
13.0053
 30
0.0
 10
-1.19
 20
12.9134
 30
0.0
 10
-1.19
 20
12.9134
 30
0.0
 10
-1.19
 20
12.9134
 30
0.0
 10
-1.19
 20
13.1773
 30
0.0
 10
-1.19
 20
13.1773
 30
0.0
  0
SPLINE
  5
136
330
1F
100
AcDbEntity
  8
Ilustrace
 62
   250
370
    15
100
AcDbSpline
210
0.0
220
0.0
230
1.0
 70
    24
 71
     3
 72
     8
 73
     4
 74
     0
 42
0.0000000001
 43
0.0000000001
 40
0.0
 40
0.0
 40
0.0
 40
0.0
 40
1.0
 40
1.0
 40
1.0
 40
1.0
 10
-6.1938
 20
-3.7665
 30
0.0
 10
-6.1938
 20
-3.7665
 30
0.0
 10
-6.1938
 20
22.5973
 30
0.0
 10
-6.1938
 20
22.5973
 30
0.0
  0
SPLINE
  5
137
330
1F
100
AcDbEntity
  8
Ilustrace
 62
   250
100
AcDbSpline
210
0.0
220
0.0
230
1.0
 70
    11
 71
     3
 72
    68
 73
    64
 74
     0
 42
0.0000000001
 43
0.0000000001
 40
0.0
 40
0.0
 40
0.0
 40
0.0
 40
0.0588235294117647
 40
0.0588235294117647
 40
0.0588235294117647
 40
0.0588235294117647
 40
0.1176470588235294
 40
0.1176470588235294
 40
0.1176470588235294
 40
0.1176470588235294
 40
0.1764705882352941
 40
0.1764705882352941
 40
0.1764705882352941
 40
0.1764705882352941
 40
0.2352941176470588
 40
0.2352941176470588
 40
0.2352941176470588
 40
0.2352941176470588
 40
0.2941176470588235
 40
0.2941176470588235
 40
0.2941176470588235
 40
0.2941176470588235
 40
0.3529411764705883
 40
0.3529411764705883
 40
0.3529411764705883
 40
0.3529411764705883
 40
0.4117647058823529
 40
0.4117647058823529
 40
0.4117647058823529
 40
0.4117647058823529
 40
0.4705882352941176
 40
0.4705882352941176
 40
0.4705882352941176
 40
0.4705882352941176
 40
0.5294117647058824
 40
0.5294117647058824
 40
0.5294117647058824
 40
0.5294117647058824
 40
0.5882352941176471
 40
0.5882352941176471
 40
0.5882352941176471
 40
0.5882352941176471
 40
0.6470588235294118
 40
0.6470588235294118
 40
0.6470588235294118
 40
0.6470588235294118
 40
0.7058823529411765
 40
0.7058823529411765
 40
0.7058823529411765
 40
0.7058823529411765
 40
0.7647058823529411
 40
0.7647058823529411
 40
0.7647058823529411
 40
0.7647058823529411
 40
0.8235294117647058
 40
0.8235294117647058
 40
0.8235294117647058
 40
0.8235294117647058
 40
0.8823529411764706
 40
0.8823529411764706
 40
0.8823529411764706
 40
0.8823529411764706
 40
1.0
 40
1.0
 40
1.0
 40
1.0
 10
-10.2644
 20
6.8334
 30
0.0
 10
-10.1829
 20
6.7713
 30
0.0
 10
-10.0904
 20
6.7112
 30
0.0
 10
-9.9856
 20
6.6517
 30
0.0
 10
-9.9856
 20
6.6517
 30
0.0
 10
-9.8815
 20
6.5922
 30
0.0
 10
-9.7638
 20
6.5378
 30
0.0
 10
-9.6338
 20
6.4893
 30
0.0
 10
-9.6338
 20
6.4893
 30
0.0
 10
-9.5038
 20
6.4402
 30
0.0
 10
-9.3589
 20
6.4014
 30
0.0
 10
-9.2005
 20
6.3716
 30
0.0
 10
-9.2005
 20
6.3716
 30
0.0
 10
-9.0414
 20
6.3425
 30
0.0
 10
-8.8674
 20
6.327
 30
0.0
 10
-8.6773
 20
6.3251
 30
0.0
 10
-8.6773
 20
6.3251
 30
0.0
 10
-8.4884
 20
6.3257
 30
0.0
 10
-8.3151
 20
6.3406
 30
0.0
 10
-8.1573
 20
6.3703
 30
0.0
 10
-8.1573
 20
6.3703
 30
0.0
 10
-7.9995
 20
6.3994
 30
0.0
 10
-7.8559
 20
6.4389
 30
0.0
 10
-7.7265
 20
6.4874
 30
0.0
 10
-7.7265
 20
6.4874
 30
0.0
 10
-7.5972
 20
6.5365
 30
0.0
 10
-7.4808
 20
6.5909
 30
0.0
 10
-7.3773
 20
6.651
 30
0.0
 10
-7.3773
 20
6.651
 30
0.0
 10
-7.2738
 20
6.7105
 30
0.0
 10
-7.182
 20
6.7713
 30
0.0
 10
-7.1018
 20
6.8334
 30
0.0
 10
-7.1018
 20
6.8334
 30
0.0
 10
-7.1018
 20
6.8334
 30
0.0
 10
-7.1018
 20
7.0973
 30
0.0
 10
-7.1018
 20
7.0973
 30
0.0
 10
-7.1018
 20
7.0973
 30
0.0
 10
-7.2304
 20
7.0054
 30
0.0
 10
-7.3727
 20
6.9233
 30
0.0
 10
-7.528
 20
6.8509
 30
0.0
 10
-7.528
 20
6.8509
 30
0.0
 10
-7.6838
 20
6.7778
 30
0.0
 10
-7.8559
 20
6.7202
 30
0.0
 10
-8.0454
 20
6.6775
 30
0.0
 10
-8.0454
 20
6.6775
 30
0.0
 10
-8.2342
 20
6.6349
 30
0.0
 10
-8.4438
 20
6.6129
 30
0.0
 10
-8.6734
 20
6.6122
 30
0.0
 10
-8.6734
 20
6.6122
 30
0.0
 10
-8.9081
 20
6.6129
 30
0.0
 10
-9.1222
 20
6.6336
 30
0.0
 10
-9.3143
 20
6.675
 30
0.0
 10
-9.3143
 20
6.675
 30
0.0
 10
-9.507
 20
6.7164
 30
0.0
 10
-9.6817
 20
6.7733
 30
0.0
 10
-9.8382
 20
6.8457
 30
0.0
 10
-9.8382
 20
6.8457
 30
0.0
 10
-9.9947
 20
6.9181
 30
0.0
 10
-10.137
 20
7.0022
 30
0.0
 10
-10.2644
 20
7.0973
 30
0.0
 10
-10.2644
 20
7.0973
 30
0.0
 10
-10.2644
 20
7.0973
 30
0.0
 10
-10.2644
 20
6.8334
 30
0.0
 10
-10.2644
 20
6.8334
 30
0.0
  0
SPLINE
  5
138
330
1F
100
AcDbEntity
  8
Ilustrace
 62
   250
100
AcDbSpline
210
0.0
220
0.0
230
1.0
 70
    11
 71
     3
 72
    36
 73
    32
 74
     0
 42
0.0000000001
 43
0.0000000001
 40
0.0
 40
0.0
 40
0.0
 40
0.0
 40
0.1111111111111111
 40
0.1111111111111111
 40
0.1111111111111111
 40
0.1111111111111111
 40
0.2222222222222222
 40
0.2222222222222222
 40
0.2222222222222222
 40
0.2222222222222222
 40
0.3333333333333333
 40
0.3333333333333333
 40
0.3333333333333333
 40
0.3333333333333333
 40
0.4444444444444444
 40
0.4444444444444444
 40
0.4444444444444444
 40
0.4444444444444444
 40
0.5555555555555556
 40
0.5555555555555556
 40
0.5555555555555556
 40
0.5555555555555556
 40
0.6666666666666666
 40
0.6666666666666666
 40
0.6666666666666666
 40
0.6666666666666666
 40
0.7777777777777778
 40
0.7777777777777778
 40
0.7777777777777778
 40
0.7777777777777778
 40
1.0
 40
1.0
 40
1.0
 40
1.0
 10
-10.0936
 20
7.4
 30
0.0
 10
-10.0936
 20
7.4
 30
0.0
 10
-9.8104
 20
7.4
 30
0.0
 10
-9.8104
 20
7.4
 30
0.0
 10
-9.8104
 20
7.4
 30
0.0
 10
-9.8104
 20
7.4
 30
0.0
 10
-9.8104
 20
8.634
 30
0.0
 10
-9.8104
 20
8.634
 30
0.0
 10
-9.8104
 20
8.634
 30
0.0
 10
-9.8104
 20
8.634
 30
0.0
 10
-9.8026
 20
8.634
 30
0.0
 10
-9.8026
 20
8.634
 30
0.0
 10
-9.8026
 20
8.634
 30
0.0
 10
-9.8026
 20
8.634
 30
0.0
 10
-7.5713
 20
7.5397
 30
0.0
 10
-7.5713
 20
7.5397
 30
0.0
 10
-7.5713
 20
7.5397
 30
0.0
 10
-7.5713
 20
7.5397
 30
0.0
 10
-7.5713
 20
7.8928
 30
0.0
 10
-7.5713
 20
7.8928
 30
0.0
 10
-7.5713
 20
7.8928
 30
0.0
 10
-7.5713
 20
7.8928
 30
0.0
 10
-9.8686
 20
8.991
 30
0.0
 10
-9.8686
 20
8.991
 30
0.0
 10
-9.8686
 20
8.991
 30
0.0
 10
-9.8686
 20
8.991
 30
0.0
 10
-10.0936
 20
8.991
 30
0.0
 10
-10.0936
 20
8.991
 30
0.0
 10
-10.0936
 20
8.991
 30
0.0
 10
-10.0936
 20
8.991
 30
0.0
 10
-10.0936
 20
7.4
 30
0.0
 10
-10.0936
 20
7.4
 30
0.0
  0
SPLINE
  5
139
330
1F
100
AcDbEntity
  8
Ilustrace
 62
   250
100
AcDbSpline
210
0.0
220
0.0
230
1.0
 70
    11
 71
     3
 72
   124
 73
   120
 74
     0
 42
0.0000000001
 43
0.0000000001
 40
0.0
 40
0.0
 40
0.0
 40
0.0
 40
0.032258064516129
 40
0.032258064516129
 40
0.032258064516129
 40
0.032258064516129
 40
0.0645161290322581
 40
0.0645161290322581
 40
0.0645161290322581
 40
0.0645161290322581
 40
0.0967741935483871
 40
0.0967741935483871
 40
0.0967741935483871
 40
0.0967741935483871
 40
0.1290322580645161
 40
0.1290322580645161
 40
0.1290322580645161
 40
0.1290322580645161
 40
0.1612903225806452
 40
0.1612903225806452
 40
0.1612903225806452
 40
0.1612903225806452
 40
0.1935483870967742
 40
0.1935483870967742
 40
0.1935483870967742
 40
0.1935483870967742
 40
0.2258064516129032
 40
0.2258064516129032
 40
0.2258064516129032
 40
0.2258064516129032
 40
0.2580645161290323
 40
0.2580645161290323
 40
0.2580645161290323
 40
0.2580645161290323
 40
0.2903225806451613
 40
0.2903225806451613
 40
0.2903225806451613
 40
0.2903225806451613
 40
0.3225806451612903
 40
0.3225806451612903
 40
0.3225806451612903
 40
0.3225806451612903
 40
0.3548387096774194
 40
0.3548387096774194
 40
0.3548387096774194
 40
0.3548387096774194
 40
0.3870967741935484
 40
0.3870967741935484
 40
0.3870967741935484
 40
0.3870967741935484
 40
0.4193548387096774
 40
0.4193548387096774
 40
0.4193548387096774
 40
0.4193548387096774
 40
0.4516129032258064
 40
0.4516129032258064
 40
0.4516129032258064
 40
0.4516129032258064
 40
0.4838709677419355
 40
0.4838709677419355
 40
0.4838709677419355
 40
0.4838709677419355
 40
0.5161290322580645
 40
0.5161290322580645
 40
0.5161290322580645
 40
0.5161290322580645
 40
0.5483870967741935
 40
0.5483870967741935
 40
0.5483870967741935
 40
0.5483870967741935
 40
0.5806451612903226
 40
0.5806451612903226
 40
0.5806451612903226
 40
0.5806451612903226
 40
0.6129032258064516
 40
0.6129032258064516
 40
0.6129032258064516
 40
0.6129032258064516
 40
0.6451612903225806
 40
0.6451612903225806
 40
0.6451612903225806
 40
0.6451612903225806
 40
0.6774193548387096
 40
0.6774193548387096
 40
0.6774193548387096
 40
0.6774193548387096
 40
0.7096774193548387
 40
0.7096774193548387
 40
0.7096774193548387
 40
0.7096774193548387
 40
0.7419354838709677
 40
0.7419354838709677
 40
0.7419354838709677
 40
0.7419354838709677
 40
0.7741935483870968
 40
0.7741935483870968
 40
0.7741935483870968
 40
0.7741935483870968
 40
0.8064516129032258
 40
0.8064516129032258
 40
0.8064516129032258
 40
0.8064516129032258
 40
0.8387096774193549
 40
0.8387096774193549
 40
0.8387096774193549
 40
0.8387096774193549
 40
0.8709677419354839
 40
0.8709677419354839
 40
0.8709677419354839
 40
0.8709677419354839
 40
0.9032258064516129
 40
0.9032258064516129
 40
0.9032258064516129
 40
0.9032258064516129
 40
0.9354838709677419
 40
0.9354838709677419
 40
0.9354838709677419
 40
0.9354838709677419
 40
1.0
 40
1.0
 40
1.0
 40
1.0
 10
-10.1325
 20
10.7838
 30
0.0
 10
-10.1325
 20
10.7528
 30
0.0
 10
-10.1312
 20
10.7159
 30
0.0
 10
-10.1286
 20
10.6745
 30
0.0
 10
-10.1286
 20
10.6745
 30
0.0
 10
-10.126
 20
10.6325
 30
0.0
 10
-10.1208
 20
10.5859
 30
0.0
 10
-10.1131
 20
10.5354
 30
0.0
 10
-10.1131
 20
10.5354
 30
0.0
 10
-10.0936
 20
10.3757
 30
0.0
 10
-10.0523
 20
10.2276
 30
0.0
 10
-9.9895
 20
10.0911
 30
0.0
 10
-9.9895
 20
10.0911
 30
0.0
 10
-9.9268
 20
9.9547
 30
0.0
 10
-9.844
 20
9.8337
 30
0.0
 10
-9.7405
 20
9.7283
 30
0.0
 10
-9.7405
 20
9.7283
 30
0.0
 10
-9.6577
 20
9.6436
 30
0.0
 10
-9.5594
 20
9.5692
 30
0.0
 10
-9.4456
 20
9.5058
 30
0.0
 10
-9.4456
 20
9.5058
 30
0.0
 10
-9.3324
 20
9.4418
 30
0.0
 10
-9.205
 20
9.392
 30
0.0
 10
-9.064
 20
9.3558
 30
0.0
 10
-9.064
 20
9.3558
 30
0.0
 10
-8.923
 20
9.3202
 30
0.0
 10
-8.7691
 20
9.3021
 30
0.0
 10
-8.6035
 20
9.3014
 30
0.0
 10
-8.6035
 20
9.3014
 30
0.0
 10
-8.4392
 20
9.3021
 30
0.0
 10
-8.2911
 20
9.3234
 30
0.0
 10
-8.1592
 20
9.3648
 30
0.0
 10
-8.1592
 20
9.3648
 30
0.0
 10
-8.0266
 20
9.4069
 30
0.0
 10
-7.9141
 20
9.467
 30
0.0
 10
-7.8203
 20
9.5453
 30
0.0
 10
-7.8203
 20
9.5453
 30
0.0
 10
-7.7265
 20
9.6229
 30
0.0
 10
-7.6541
 20
9.7167
 30
0.0
 10
-7.6043
 20
9.8253
 30
0.0
 10
-7.6043
 20
9.8253
 30
0.0
 10
-7.5545
 20
9.934
 30
0.0
 10
-7.5293
 20
10.0556
 30
0.0
 10
-7.5286
 20
10.1901
 30
0.0
 10
-7.5286
 20
10.1901
 30
0.0
 10
-7.5299
 20
10.322
 30
0.0
 10
-7.5545
 20
10.4404
 30
0.0
 10
-7.6023
 20
10.5445
 30
0.0
 10
-7.6023
 20
10.5445
 30
0.0
 10
-7.6508
 20
10.648
 30
0.0
 10
-7.7168
 20
10.7366
 30
0.0
 10
-7.8002
 20
10.809
 30
0.0
 10
-7.8002
 20
10.809
 30
0.0
 10
-7.8837
 20
10.8815
 30
0.0
 10
-7.9788
 20
10.9371
 30
0.0
 10
-8.0855
 20
10.9746
 30
0.0
 10
-8.0855
 20
10.9746
 30
0.0
 10
-8.1915
 20
11.0128
 30
0.0
 10
-8.3034
 20
11.0322
 30
0.0
 10
-8.4211
 20
11.0322
 30
0.0
 10
-8.4211
 20
11.0322
 30
0.0
 10
-8.544
 20
11.0315
 30
0.0
 10
-8.6553
 20
11.0128
 30
0.0
 10
-8.7549
 20
10.9759
 30
0.0
 10
-8.7549
 20
10.9759
 30
0.0
 10
-8.8545
 20
10.939
 30
0.0
 10
-8.9405
 20
10.8866
 30
0.0
 10
-9.0123
 20
10.8194
 30
0.0
 10
-9.0123
 20
10.8194
 30
0.0
 10
-9.0834
 20
10.7515
 30
0.0
 10
-9.139
 20
10.6713
 30
0.0
 10
-9.1772
 20
10.5788
 30
0.0
 10
-9.1772
 20
10.5788
 30
0.0
 10
-9.216
 20
10.4863
 30
0.0
 10
-9.2354
 20
10.3835
 30
0.0
 10
-9.2361
 20
10.2716
 30
0.0
 10
-9.2361
 20
10.2716
 30
0.0
 10
-9.2354
 20
10.1784
 30
0.0
 10
-9.2218
 20
10.0931
 30
0.0
 10
-9.196
 20
10.0155
 30
0.0
 10
-9.196
 20
10.0155
 30
0.0
 10
-9.1694
 20
9.9378
 30
0.0
 10
-9.1345
 20
9.8686
 30
0.0
 10
-9.0899
 20
9.8085
 30
0.0
 10
-9.0899
 20
9.8085
 30
0.0
 10
-9.0459
 20
9.749
 30
0.0
 10
-8.9961
 20
9.6985
 30
0.0
 10
-8.9411
 20
9.6584
 30
0.0
 10
-8.9411
 20
9.6584
 30
0.0
 10
-8.9411
 20
9.6584
 30
0.0
 10
-8.9411
 20
9.6507
 30
0.0
 10
-8.9411
 20
9.6507
 30
0.0
 10
-8.9411
 20
9.6507
 30
0.0
 10
-9.0466
 20
9.6649
 30
0.0
 10
-9.1481
 20
9.6934
 30
0.0
 10
-9.2458
 20
9.7367
 30
0.0
 10
-9.2458
 20
9.7367
 30
0.0
 10
-9.3428
 20
9.7794
 30
0.0
 10
-9.432
 20
9.8363
 30
0.0
 10
-9.5129
 20
9.9087
 30
0.0
 10
-9.5129
 20
9.9087
 30
0.0
 10
-9.5931
 20
9.9812
 30
0.0
 10
-9.6616
 20
10.0685
 30
0.0
 10
-9.7173
 20
10.1713
 30
0.0
 10
-9.7173
 20
10.1713
 30
0.0
 10
-9.7729
 20
10.2742
 30
0.0
 10
-9.8117
 20
10.3931
 30
0.0
 10
-9.8337
 20
10.5277
 30
0.0
 10
-9.8337
 20
10.5277
 30
0.0
 10
-9.8414
 20
10.5762
 30
0.0
 10
-9.8472
 20
10.6228
 30
0.0
 10
-9.8505
 20
10.6661
 30
0.0
 10
-9.8505
 20
10.6661
 30
0.0
 10
-9.8544
 20
10.7094
 30
0.0
 10
-9.855
 20
10.7489
 30
0.0
 10
-9.8531
 20
10.7838
 30
0.0
 10
-9.8531
 20
10.7838
 30
0.0
 10
-9.8531
 20
10.7838
 30
0.0
 10
-10.1325
 20
10.7838
 30
0.0
 10
-10.1325
 20
10.7838
 30
0.0
  0
SPLINE
  5
13A
330
1F
100
AcDbEntity
  8
Ilustrace
 62
   250
100
AcDbSpline
210
0.0
220
0.0
230
1.0
 70
    11
 71
     3
 72
    64
 73
    60
 74
     0
 42
0.0000000001
 43
0.0000000001
 40
0.0
 40
0.0
 40
0.0
 40
0.0
 40
0.0625
 40
0.0625
 40
0.0625
 40
0.0625
 40
0.125
 40
0.125
 40
0.125
 40
0.125
 40
0.1875
 40
0.1875
 40
0.1875
 40
0.1875
 40
0.25
 40
0.25
 40
0.25
 40
0.25
 40
0.3125
 40
0.3125
 40
0.3125
 40
0.3125
 40
0.375
 40
0.375
 40
0.375
 40
0.375
 40
0.4375
 40
0.4375
 40
0.4375
 40
0.4375
 40
0.5
 40
0.5
 40
0.5
 40
0.5
 40
0.5625
 40
0.5625
 40
0.5625
 40
0.5625
 40
0.625
 40
0.625
 40
0.625
 40
0.625
 40
0.6875
 40
0.6875
 40
0.6875
 40
0.6875
 40
0.75
 40
0.75
 40
0.75
 40
0.75
 40
0.8125
 40
0.8125
 40
0.8125
 40
0.8125
 40
0.875
 40
0.875
 40
0.875
 40
0.875
 40
1.0
 40
1.0
 40
1.0
 40
1.0
 10
-7.7925
 20
10.1978
 30
0.0
 10
-7.7931
 20
10.1073
 30
0.0
 10
-7.8112
 20
10.0277
 30
0.0
 10
-7.8475
 20
9.9585
 30
0.0
 10
-7.8475
 20
9.9585
 30
0.0
 10
-7.8837
 20
9.89
 30
0.0
 10
-7.9341
 20
9.8318
 30
0.0
 10
-7.9995
 20
9.7846
 30
0.0
 10
-7.9995
 20
9.7846
 30
0.0
 10
-8.0648
 20
9.7373
 30
0.0
 10
-8.1417
 20
9.7018
 30
0.0
 10
-8.2297
 20
9.6772
 30
0.0
 10
-8.2297
 20
9.6772
 30
0.0
 10
-8.3177
 20
9.6526
 30
0.0
 10
-8.414
 20
9.6403
 30
0.0
 10
-8.5181
 20
9.639
 30
0.0
 10
-8.5181
 20
9.639
 30
0.0
 10
-8.5492
 20
9.639
 30
0.0
 10
-8.5764
 20
9.6429
 30
0.0
 10
-8.6009
 20
9.6494
 30
0.0
 10
-8.6009
 20
9.6494
 30
0.0
 10
-8.6249
 20
9.6559
 30
0.0
 10
-8.6462
 20
9.6643
 30
0.0
 10
-8.6656
 20
9.674
 30
0.0
 10
-8.6656
 20
9.674
 30
0.0
 10
-8.7284
 20
9.7057
 30
0.0
 10
-8.7827
 20
9.7464
 30
0.0
 10
-8.8292
 20
9.7975
 30
0.0
 10
-8.8292
 20
9.7975
 30
0.0
 10
-8.8752
 20
9.8479
 30
0.0
 10
-8.9114
 20
9.9049
 30
0.0
 10
-8.9372
 20
9.9682
 30
0.0
 10
-8.9372
 20
9.9682
 30
0.0
 10
-8.9625
 20
10.0316
 30
0.0
 10
-8.9761
 20
10.0976
 30
0.0
 10
-8.9761
 20
10.1668
 30
0.0
 10
-8.9761
 20
10.1668
 30
0.0
 10
-8.9754
 20
10.2722
 30
0.0
 10
-8.9521
 20
10.3634
 30
0.0
 10
-8.9062
 20
10.4417
 30
0.0
 10
-8.9062
 20
10.4417
 30
0.0
 10
-8.8603
 20
10.5193
 30
0.0
 10
-8.7943
 20
10.5794
 30
0.0
 10
-8.7083
 20
10.6221
 30
0.0
 10
-8.7083
 20
10.6221
 30
0.0
 10
-8.6223
 20
10.6648
 30
0.0
 10
-8.5188
 20
10.6861
 30
0.0
 10
-8.3978
 20
10.6868
 30
0.0
 10
-8.3978
 20
10.6868
 30
0.0
 10
-8.2769
 20
10.6861
 30
0.0
 10
-8.1709
 20
10.6654
 30
0.0
 10
-8.0803
 20
10.6247
 30
0.0
 10
-8.0803
 20
10.6247
 30
0.0
 10
-7.9897
 20
10.584
 30
0.0
 10
-7.9199
 20
10.527
 30
0.0
 10
-7.8694
 20
10.454
 30
0.0
 10
-7.8694
 20
10.454
 30
0.0
 10
-7.819
 20
10.3809
 30
0.0
 10
-7.7931
 20
10.2955
 30
0.0
 10
-7.7925
 20
10.1978
 30
0.0
  0
SPLINE
  5
13B
330
1F
100
AcDbEntity
  8
Ilustrace
 62
   250
100
AcDbSpline
210
0.0
220
0.0
230
1.0
 70
    11
 71
     3
 72
    68
 73
    64
 74
     0
 42
0.0000000001
 43
0.0000000001
 40
0.0
 40
0.0
 40
0.0
 40
0.0
 40
0.0588235294117647
 40
0.0588235294117647
 40
0.0588235294117647
 40
0.0588235294117647
 40
0.1176470588235294
 40
0.1176470588235294
 40
0.1176470588235294
 40
0.1176470588235294
 40
0.1764705882352941
 40
0.1764705882352941
 40
0.1764705882352941
 40
0.1764705882352941
 40
0.2352941176470588
 40
0.2352941176470588
 40
0.2352941176470588
 40
0.2352941176470588
 40
0.2941176470588235
 40
0.2941176470588235
 40
0.2941176470588235
 40
0.2941176470588235
 40
0.3529411764705883
 40
0.3529411764705883
 40
0.3529411764705883
 40
0.3529411764705883
 40
0.4117647058823529
 40
0.4117647058823529
 40
0.4117647058823529
 40
0.4117647058823529
 40
0.4705882352941176
 40
0.4705882352941176
 40
0.4705882352941176
 40
0.4705882352941176
 40
0.5294117647058824
 40
0.5294117647058824
 40
0.5294117647058824
 40
0.5294117647058824
 40
0.5882352941176471
 40
0.5882352941176471
 40
0.5882352941176471
 40
0.5882352941176471
 40
0.6470588235294118
 40
0.6470588235294118
 40
0.6470588235294118
 40
0.6470588235294118
 40
0.7058823529411765
 40
0.7058823529411765
 40
0.7058823529411765
 40
0.7058823529411765
 40
0.7647058823529411
 40
0.7647058823529411
 40
0.7647058823529411
 40
0.7647058823529411
 40
0.8235294117647058
 40
0.8235294117647058
 40
0.8235294117647058
 40
0.8235294117647058
 40
0.8823529411764706
 40
0.8823529411764706
 40
0.8823529411764706
 40
0.8823529411764706
 40
1.0
 40
1.0
 40
1.0
 40
1.0
 10
-7.1018
 20
11.5017
 30
0.0
 10
-7.1832
 20
11.5638
 30
0.0
 10
-7.2757
 20
11.6239
 30
0.0
 10
-7.3798
 20
11.6841
 30
0.0
 10
-7.3798
 20
11.6841
 30
0.0
 10
-7.484
 20
11.7436
 30
0.0
 10
-7.6004
 20
11.7973
 30
0.0
 10
-7.7304
 20
11.8464
 30
0.0
 10
-7.7304
 20
11.8464
 30
0.0
 10
-7.8604
 20
11.8949
 30
0.0
 10
-8.004
 20
11.9337
 30
0.0
 10
-8.1624
 20
11.9635
 30
0.0
 10
-8.1624
 20
11.9635
 30
0.0
 10
-8.3209
 20
11.9926
 30
0.0
 10
-8.4949
 20
12.0081
 30
0.0
 10
-8.685
 20
12.0101
 30
0.0
 10
-8.685
 20
12.0101
 30
0.0
 10
-8.8752
 20
12.0094
 30
0.0
 10
-9.0491
 20
11.9945
 30
0.0
 10
-9.2082
 20
11.9648
 30
0.0
 10
-9.2082
 20
11.9648
 30
0.0
 10
-9.3667
 20
11.9357
 30
0.0
 10
-9.5109
 20
11.8969
 30
0.0
 10
-9.6409
 20
11.8477
 30
0.0
 10
-9.6409
 20
11.8477
 30
0.0
 10
-9.7703
 20
11.7986
 30
0.0
 10
-9.8867
 20
11.7442
 30
0.0
 10
-9.9902
 20
11.6841
 30
0.0
 10
-9.9902
 20
11.6841
 30
0.0
 10
-10.0936
 20
11.6246
 30
0.0
 10
-10.1848
 20
11.5638
 30
0.0
 10
-10.2644
 20
11.5017
 30
0.0
 10
-10.2644
 20
11.5017
 30
0.0
 10
-10.2644
 20
11.5017
 30
0.0
 10
-10.2644
 20
11.2378
 30
0.0
 10
-10.2644
 20
11.2378
 30
0.0
 10
-10.2644
 20
11.2378
 30
0.0
 10
-10.1357
 20
11.3303
 30
0.0
 10
-9.9934
 20
11.4131
 30
0.0
 10
-9.8375
 20
11.4862
 30
0.0
 10
-9.8375
 20
11.4862
 30
0.0
 10
-9.6817
 20
11.5586
 30
0.0
 10
-9.509
 20
11.6162
 30
0.0
 10
-9.3188
 20
11.6582
 30
0.0
 10
-9.3188
 20
11.6582
 30
0.0
 10
-9.1287
 20
11.7003
 30
0.0
 10
-8.9172
 20
11.7222
 30
0.0
 10
-8.685
 20
11.7229
 30
0.0
 10
-8.685
 20
11.7229
 30
0.0
 10
-8.4528
 20
11.7222
 30
0.0
 10
-8.2407
 20
11.7003
 30
0.0
 10
-8.0493
 20
11.6576
 30
0.0
 10
-8.0493
 20
11.6576
 30
0.0
 10
-7.8578
 20
11.6149
 30
0.0
 10
-7.6845
 20
11.5573
 30
0.0
 10
-7.528
 20
11.4842
 30
0.0
 10
-7.528
 20
11.4842
 30
0.0
 10
-7.3715
 20
11.4118
 30
0.0
 10
-7.2292
 20
11.3297
 30
0.0
 10
-7.1018
 20
11.2378
 30
0.0
 10
-7.1018
 20
11.2378
 30
0.0
 10
-7.1018
 20
11.2378
 30
0.0
 10
-7.1018
 20
11.5017
 30
0.0
 10
-7.1018
 20
11.5017
 30
0.0
  0
SPLINE
  5
13C
330
1F
100
AcDbEntity
  8
Ilustrace
 62
   250
370
    30
100
AcDbSpline
210
0.0
220
0.0
230
1.0
 70
    24
 71
     3
 72
     8
 73
     4
 74
     0
 42
0.0000000001
 43
0.0000000001
 40
0.0
 40
0.0
 40
0.0
 40
0.0
 40
1.0
 40
1.0
 40
1.0
 40
1.0
 10
8.7033
 20
-13.6127
 30
0.0
 10
8.7033
 20
-13.6127
 30
0.0
 10
8.7033
 20
-22.121
 30
0.0
 10
8.7033
 20
-22.121
 30
0.0
  0
SPLINE
  5
13D
330
1F
100
AcDbEntity
  8
Ilustrace
 62
   250
370
    30
100
AcDbSpline
210
0.0
220
0.0
230
1.0
 70
    24
 71
     3
 72
     8
 73
     4
 74
     0
 42
0.0000000001
 43
0.0000000001
 40
0.0
 40
0.0
 40
0.0
 40
0.0
 40
1.0
 40
1.0
 40
1.0
 40
1.0
 10
9.4123
 20
-22.121
 30
0.0
 10
9.4123
 20
-22.121
 30
0.0
 10
8.7033
 20
-22.121
 30
0.0
 10
8.7033
 20
-22.121
 30
0.0
  0
SPLINE
  5
13E
330
1F
100
AcDbEntity
  8
Ilustrace
 62
   250
370
    30
100
AcDbSpline
210
0.0
220
0.0
230
1.0
 70
    24
 71
     3
 72
     8
 73
     4
 74
     0
 42
0.0000000001
 43
0.0000000001
 40
0.0
 40
0.0
 40
0.0
 40
0.0
 40
1.0
 40
1.0
 40
1.0
 40
1.0
 10
9.4123
 20
-13.6127
 30
0.0
 10
9.4123
 20
-13.6127
 30
0.0
 10
9.4123
 20
-22.121
 30
0.0
 10
9.4123
 20
-22.121
 30
0.0
  0
SPLINE
  5
13F
330
1F
100
AcDbEntity
  8
Ilustrace
 62
   250
370
    30
100
AcDbSpline
210
0.0
220
0.0
230
1.0
 70
    24
 71
     3
 72
     8
 73
     4
 74
     0
 42
0.0000000001
 43
0.0000000001
 40
0.0
 40
0.0
 40
0.0
 40
0.0
 40
1.0
 40
1.0
 40
1.0
 40
1.0
 10
9.4123
 20
-13.6941
 30
0.0
 10
9.4123
 20
-13.6941
 30
0.0
 10
9.4123
 20
-13.6592
 30
0.0
 10
9.4123
 20
-13.6592
 30
0.0
  0
SPLINE
  5
140
330
1F
100
AcDbEntity
  8
Ilustrace
 62
   250
370
    30
100
AcDbSpline
210
0.0
220
0.0
230
1.0
 70
    24
 71
     3
 72
     8
 73
     4
 74
     0
 42
0.0000000001
 43
0.0000000001
 40
0.0
 40
0.0
 40
0.0
 40
0.0
 40
1.0
 40
1.0
 40
1.0
 40
1.0
 10
9.4123
 20
-13.6337
 30
0.0
 10
9.4123
 20
-13.6337
 30
0.0
 10
9.4123
 20
-13.6181
 30
0.0
 10
9.4123
 20
-13.6181
 30
0.0
  0
SPLINE
  5
141
330
1F
100
AcDbEntity
  8
Ilustrace
 62
   250
370
    30
100
AcDbSpline
210
0.0
220
0.0
230
1.0
 70
    24
 71
     3
 72
     8
 73
     4
 74
     0
 42
0.0000000001
 43
0.0000000001
 40
0.0
 40
0.0
 40
0.0
 40
0.0
 40
1.0
 40
1.0
 40
1.0
 40
1.0
 10
8.7033
 20
-13.6592
 30
0.0
 10
8.7033
 20
-13.6592
 30
0.0
 10
8.7033
 20
-13.6337
 30
0.0
 10
8.7033
 20
-13.6337
 30
0.0
  0
SPLINE
  5
142
330
1F
100
AcDbEntity
  8
Ilustrace
 62
   250
370
    30
100
AcDbSpline
210
0.0
220
0.0
230
1.0
 70
    24
 71
     3
 72
     8
 73
     4
 74
     0
 42
0.0000000001
 43
0.0000000001
 40
0.0
 40
0.0
 40
0.0
 40
0.0
 40
1.0
 40
1.0
 40
1.0
 40
1.0
 10
8.7033
 20
-13.6181
 30
0.0
 10
8.7033
 20
-13.6181
 30
0.0
 10
8.7033
 20
-13.8451
 30
0.0
 10
8.7033
 20
-13.8451
 30
0.0
  0
SPLINE
  5
143
330
1F
100
AcDbEntity
  8
Ilustrace
 62
   250
370
    30
100
AcDbSpline
210
0.0
220
0.0
230
1.0
 70
    24
 71
     3
 72
     8
 73
     4
 74
     0
 42
0.0000000001
 43
0.0000000001
 40
0.0
 40
0.0
 40
0.0
 40
0.0
 40
1.0
 40
1.0
 40
1.0
 40
1.0
 10
9.4123
 20
-13.6127
 30
0.0
 10
9.4123
 20
-13.6127
 30
0.0
 10
8.7033
 20
-13.6127
 30
0.0
 10
8.7033
 20
-13.6127
 30
0.0
  0
SPLINE
  5
144
330
1F
100
AcDbEntity
  8
Ilustrace
 62
   250
370
    30
100
AcDbSpline
210
0.0
220
0.0
230
1.0
 70
    24
 71
     3
 72
     8
 73
     4
 74
     0
 42
0.0000000001
 43
0.0000000001
 40
0.0
 40
0.0
 40
0.0
 40
0.0
 40
1.0
 40
1.0
 40
1.0
 40
1.0
 10
9.4123
 20
-13.6181
 30
0.0
 10
9.4123
 20
-13.6181
 30
0.0
 10
8.7033
 20
-13.6181
 30
0.0
 10
8.7033
 20
-13.6181
 30
0.0
  0
SPLINE
  5
145
330
1F
100
AcDbEntity
  8
Ilustrace
 62
   250
370
    30
100
AcDbSpline
210
0.0
220
0.0
230
1.0
 70
    24
 71
     3
 72
     8
 73
     4
 74
     0
 42
0.0000000001
 43
0.0000000001
 40
0.0
 40
0.0
 40
0.0
 40
0.0
 40
1.0
 40
1.0
 40
1.0
 40
1.0
 10
41.079
 20
-20.6722
 30
0.0
 10
41.079
 20
-20.6722
 30
0.0
 10
41.079
 20
-19.6705
 30
0.0
 10
41.079
 20
-19.6705
 30
0.0
  0
SPLINE
  5
146
330
1F
100
AcDbEntity
  8
Ilustrace
 62
   250
370
    30
100
AcDbSpline
210
0.0
220
0.0
230
1.0
 70
    24
 71
     3
 72
     8
 73
     4
 74
     0
 42
0.0000000001
 43
0.0000000001
 40
0.0
 40
0.0
 40
0.0
 40
0.0
 40
1.0
 40
1.0
 40
1.0
 40
1.0
 10
41.079
 20
-16.0635
 30
0.0
 10
41.079
 20
-16.0635
 30
0.0
 10
41.079
 20
-15.0618
 30
0.0
 10
41.079
 20
-15.0618
 30
0.0
  0
SPLINE
  5
147
330
1F
100
AcDbEntity
  8
Ilustrace
 62
   250
370
    30
100
AcDbSpline
210
0.0
220
0.0
230
1.0
 70
    24
 71
     3
 72
     8
 73
     4
 74
     0
 42
0.0000000001
 43
0.0000000001
 40
0.0
 40
0.0
 40
0.0
 40
0.0
 40
1.0
 40
1.0
 40
1.0
 40
1.0
 10
39.5473
 20
-15.2045
 30
0.0
 10
39.5473
 20
-15.2045
 30
0.0
 10
39.5473
 20
-15.9206
 30
0.0
 10
39.5473
 20
-15.9206
 30
0.0
  0
SPLINE
  5
148
330
1F
100
AcDbEntity
  8
Ilustrace
 62
   250
370
    30
100
AcDbSpline
210
0.0
220
0.0
230
1.0
 70
    24
 71
     3
 72
     8
 73
     4
 74
     0
 42
0.0000000001
 43
0.0000000001
 40
0.0
 40
0.0
 40
0.0
 40
0.0
 40
1.0
 40
1.0
 40
1.0
 40
1.0
 10
26.1637
 20
-15.9171
 30
0.0
 10
26.1637
 20
-15.9171
 30
0.0
 10
26.1637
 20
-19.8169
 30
0.0
 10
26.1637
 20
-19.8169
 30
0.0
  0
SPLINE
  5
149
330
1F
100
AcDbEntity
  8
Ilustrace
 62
   250
370
    30
100
AcDbSpline
210
0.0
220
0.0
230
1.0
 70
    24
 71
     3
 72
     8
 73
     4
 74
     0
 42
0.0000000001
 43
0.0000000001
 40
0.0
 40
0.0
 40
0.0
 40
0.0
 40
1.0
 40
1.0
 40
1.0
 40
1.0
 10
34.4901
 20
-23.4179
 30
0.0
 10
34.4901
 20
-23.4179
 30
0.0
 10
29.1725
 20
-23.4179
 30
0.0
 10
29.1725
 20
-23.4179
 30
0.0
  0
SPLINE
  5
14A
330
1F
100
AcDbEntity
  8
Ilustrace
 62
   250
370
    30
100
AcDbSpline
210
0.0
220
0.0
230
1.0
 70
    24
 71
     3
 72
     8
 73
     4
 74
     0
 42
0.0000000001
 43
0.0000000001
 40
0.0
 40
0.0
 40
0.0
 40
0.0
 40
1.0
 40
1.0
 40
1.0
 40
1.0
 10
34.4901
 20
-12.3158
 30
0.0
 10
34.4901
 20
-12.3158
 30
0.0
 10
29.1725
 20
-12.3158
 30
0.0
 10
29.1725
 20
-12.3158
 30
0.0
  0
SPLINE
  5
14B
330
1F
100
AcDbEntity
  8
Ilustrace
 62
   250
370
    30
100
AcDbSpline
210
0.0
220
0.0
230
1.0
 70
    24
 71
     3
 72
     8
 73
     4
 74
     0
 42
0.0000000001
 43
0.0000000001
 40
0.0
 40
0.0
 40
0.0
 40
0.0
 40
1.0
 40
1.0
 40
1.0
 40
1.0
 10
37.2276
 20
-15.9171
 30
0.0
 10
37.2276
 20
-15.9171
 30
0.0
 10
37.2276
 20
-19.8169
 30
0.0
 10
37.2276
 20
-19.8169
 30
0.0
  0
SPLINE
  5
14C
330
1F
100
AcDbEntity
  8
Ilustrace
 62
   250
370
    30
100
AcDbSpline
210
0.0
220
0.0
230
1.0
 70
    24
 71
     3
 72
     8
 73
     4
 74
     0
 42
0.0000000001
 43
0.0000000001
 40
0.0
 40
0.0
 40
0.0
 40
0.0
 40
1.0
 40
1.0
 40
1.0
 40
1.0
 10
43.6224
 20
-20.3484
 30
0.0
 10
43.6224
 20
-20.3484
 30
0.0
 10
42.2046
 20
-20.3484
 30
0.0
 10
42.2046
 20
-20.3484
 30
0.0
  0
SPLINE
  5
14D
330
1F
100
AcDbEntity
  8
Ilustrace
 62
   250
370
    30
100
AcDbSpline
210
0.0
220
0.0
230
1.0
 70
    24
 71
     3
 72
     8
 73
     4
 74
     0
 42
0.0000000001
 43
0.0000000001
 40
0.0
 40
0.0
 40
0.0
 40
0.0
 40
1.0
 40
1.0
 40
1.0
 40
1.0
 10
43.6224
 20
-15.3852
 30
0.0
 10
43.6224
 20
-15.3852
 30
0.0
 10
43.6224
 20
-20.3484
 30
0.0
 10
43.6224
 20
-20.3484
 30
0.0
  0
SPLINE
  5
14E
330
1F
100
AcDbEntity
  8
Ilustrace
 62
   250
370
    30
100
AcDbSpline
210
0.0
220
0.0
230
1.0
 70
    24
 71
     3
 72
     8
 73
     4
 74
     0
 42
0.0000000001
 43
0.0000000001
 40
0.0
 40
0.0
 40
0.0
 40
0.0
 40
1.0
 40
1.0
 40
1.0
 40
1.0
 10
42.2046
 20
-15.3852
 30
0.0
 10
42.2046
 20
-15.3852
 30
0.0
 10
43.6224
 20
-15.3852
 30
0.0
 10
43.6224
 20
-15.3852
 30
0.0
  0
SPLINE
  5
14F
330
1F
100
AcDbEntity
  8
Ilustrace
 62
   250
370
    30
100
AcDbSpline
210
0.0
220
0.0
230
1.0
 70
    24
 71
     3
 72
     8
 73
     4
 74
     0
 42
0.0000000001
 43
0.0000000001
 40
0.0
 40
0.0
 40
0.0
 40
0.0
 40
1.0
 40
1.0
 40
1.0
 40
1.0
 10
42.2046
 20
-15.3852
 30
0.0
 10
42.2046
 20
-15.3852
 30
0.0
 10
42.2046
 20
-20.3484
 30
0.0
 10
42.2046
 20
-20.3484
 30
0.0
  0
SPLINE
  5
150
330
1F
100
AcDbEntity
  8
Ilustrace
 62
   250
370
    30
100
AcDbSpline
210
0.0
220
0.0
230
1.0
 70
     8
 71
     3
 72
    20
 73
    16
 74
     0
 42
0.0000000001
 43
0.0000000001
 40
0.0
 40
0.0
 40
0.0
 40
0.0
 40
0.2
 40
0.2
 40
0.2
 40
0.2
 40
0.4
 40
0.4
 40
0.4
 40
0.4
 40
0.6
 40
0.6
 40
0.6
 40
0.6
 40
1.0
 40
1.0
 40
1.0
 40
1.0
 10
43.0908
 20
-20.3484
 30
0.0
 10
43.0908
 20
-20.3484
 30
0.0
 10
43.0908
 20
-21.0576
 30
0.0
 10
43.0908
 20
-21.0576
 30
0.0
 10
43.0908
 20
-21.0576
 30
0.0
 10
43.0908
 20
-21.0576
 30
0.0
 10
43.0908
 20
-21.6778
 30
0.0
 10
43.0908
 20
-21.6778
 30
0.0
 10
43.0908
 20
-21.6778
 30
0.0
 10
43.0908
 20
-21.6778
 30
0.0
 10
43.0908
 20
-22.387
 30
0.0
 10
43.0908
 20
-22.387
 30
0.0
 10
43.0908
 20
-22.387
 30
0.0
 10
43.0908
 20
-22.387
 30
0.0
 10
43.0779
 20
-22.665
 30
0.0
 10
43.0779
 20
-22.665
 30
0.0
  0
SPLINE
  5
151
330
1F
100
AcDbEntity
  8
Ilustrace
 62
   250
370
    30
100
AcDbSpline
210
0.0
220
0.0
230
1.0
 70
     8
 71
     3
 72
    20
 73
    16
 74
     0
 42
0.0000000001
 43
0.0000000001
 40
0.0
 40
0.0
 40
0.0
 40
0.0
 40
0.2
 40
0.2
 40
0.2
 40
0.2
 40
0.4
 40
0.4
 40
0.4
 40
0.4
 40
0.6
 40
0.6
 40
0.6
 40
0.6
 40
1.0
 40
1.0
 40
1.0
 40
1.0
 10
43.0779
 20
-22.665
 30
0.0
 10
43.0265
 20
-23.2206
 30
0.0
 10
42.8184
 20
-23.7577
 30
0.0
 10
42.4821
 20
-24.2028
 30
0.0
 10
42.4821
 20
-24.2028
 30
0.0
 10
42.3143
 20
-24.4252
 30
0.0
 10
42.1155
 20
-24.6239
 30
0.0
 10
41.8934
 20
-24.7916
 30
0.0
 10
41.8934
 20
-24.7916
 30
0.0
 10
41.6712
 20
-24.9593
 30
0.0
 10
41.4257
 20
-25.0962
 30
0.0
 10
41.166
 20
-25.1967
 30
0.0
 10
41.166
 20
-25.1967
 30
0.0
 10
40.8115
 20
-25.3341
 30
0.0
 10
40.4546
 20
-25.3828
 30
0.0
 10
40.0774
 20
-25.4002
 30
0.0
  0
SPLINE
  5
152
330
1F
100
AcDbEntity
  8
Ilustrace
 62
   250
370
    30
100
AcDbSpline
210
0.0
220
0.0
230
1.0
 70
    24
 71
     3
 72
    12
 73
     8
 74
     0
 42
0.0000000001
 43
0.0000000001
 40
0.0
 40
0.0
 40
0.0
 40
0.0
 40
0.3333333333333333
 40
0.3333333333333333
 40
0.3333333333333333
 40
0.3333333333333333
 40
1.0
 40
1.0
 40
1.0
 40
1.0
 10
40.0774
 20
-25.4002
 30
0.0
 10
40.0774
 20
-25.4002
 30
0.0
 10
39.3684
 20
-25.4002
 30
0.0
 10
39.3684
 20
-25.4002
 30
0.0
 10
39.3684
 20
-25.4002
 30
0.0
 10
39.3684
 20
-25.4002
 30
0.0
 10
12.0711
 20
-25.4002
 30
0.0
 10
12.0711
 20
-25.4002
 30
0.0
  0
SPLINE
  5
153
330
1F
100
AcDbEntity
  8
Ilustrace
 62
   250
370
    30
100
AcDbSpline
210
0.0
220
0.0
230
1.0
 70
     8
 71
     3
 72
    16
 73
    12
 74
     0
 42
0.0000000001
 43
0.0000000001
 40
0.0
 40
0.0
 40
0.0
 40
0.0
 40
0.25
 40
0.25
 40
0.25
 40
0.25
 40
0.5
 40
0.5
 40
0.5
 40
0.5
 40
1.0
 40
1.0
 40
1.0
 40
1.0
 10
12.0711
 20
-25.4002
 30
0.0
 10
11.5515
 20
-25.4002
 30
0.0
 10
11.0415
 20
-25.4287
 30
0.0
 10
10.5376
 20
-25.2853
 30
0.0
 10
10.5376
 20
-25.2853
 30
0.0
 10
9.5431
 20
-25.0024
 30
0.0
 10
8.7467
 20
-24.206
 30
0.0
 10
8.4638
 20
-23.2116
 30
0.0
 10
8.4638
 20
-23.2116
 30
0.0
 10
8.3205
 20
-22.7074
 30
0.0
 10
8.3489
 20
-22.1975
 30
0.0
 10
8.3489
 20
-21.6778
 30
0.0
  0
SPLINE
  5
154
330
1F
100
AcDbEntity
  8
Ilustrace
 62
   250
370
    30
100
AcDbSpline
210
0.0
220
0.0
230
1.0
 70
    24
 71
     3
 72
     8
 73
     4
 74
     0
 42
0.0000000001
 43
0.0000000001
 40
0.0
 40
0.0
 40
0.0
 40
0.0
 40
1.0
 40
1.0
 40
1.0
 40
1.0
 10
8.3489
 20
-21.6778
 30
0.0
 10
8.3489
 20
-21.6778
 30
0.0
 10
8.3489
 20
-14.0559
 30
0.0
 10
8.3489
 20
-14.0559
 30
0.0
  0
SPLINE
  5
155
330
1F
100
AcDbEntity
  8
Ilustrace
 62
   250
370
    30
100
AcDbSpline
210
0.0
220
0.0
230
1.0
 70
     8
 71
     3
 72
    16
 73
    12
 74
     0
 42
0.0000000001
 43
0.0000000001
 40
0.0
 40
0.0
 40
0.0
 40
0.0
 40
0.25
 40
0.25
 40
0.25
 40
0.25
 40
0.5
 40
0.5
 40
0.5
 40
0.5
 40
1.0
 40
1.0
 40
1.0
 40
1.0
 10
8.3489
 20
-14.0559
 30
0.0
 10
8.3489
 20
-13.6386
 30
0.0
 10
8.3227
 20
-13.2075
 30
0.0
 10
8.4002
 20
-12.7932
 30
0.0
 10
8.4002
 20
-12.7932
 30
0.0
 10
8.5722
 20
-11.8721
 30
0.0
 10
9.1802
 20
-11.0673
 30
0.0
 10
10.019
 20
-10.6495
 30
0.0
 10
10.019
 20
-10.6495
 30
0.0
 10
10.6805
 20
-10.3202
 30
0.0
 10
11.3473
 20
-10.3337
 30
0.0
 10
12.0711
 20
-10.3337
 30
0.0
  0
SPLINE
  5
156
330
1F
100
AcDbEntity
  8
Ilustrace
 62
   250
370
    30
100
AcDbSpline
210
0.0
220
0.0
230
1.0
 70
    24
 71
     3
 72
     8
 73
     4
 74
     0
 42
0.0000000001
 43
0.0000000001
 40
0.0
 40
0.0
 40
0.0
 40
0.0
 40
1.0
 40
1.0
 40
1.0
 40
1.0
 10
12.0711
 20
-10.3337
 30
0.0
 10
12.0711
 20
-10.3337
 30
0.0
 10
39.3684
 20
-10.3337
 30
0.0
 10
39.3684
 20
-10.3337
 30
0.0
  0
SPLINE
  5
157
330
1F
100
AcDbEntity
  8
Ilustrace
 62
   250
370
    30
100
AcDbSpline
210
0.0
220
0.0
230
1.0
 70
     8
 71
     3
 72
    20
 73
    16
 74
     0
 42
0.0000000001
 43
0.0000000001
 40
0.0
 40
0.0
 40
0.0
 40
0.0
 40
0.2
 40
0.2
 40
0.2
 40
0.2
 40
0.4
 40
0.4
 40
0.4
 40
0.4
 40
0.6
 40
0.6
 40
0.6
 40
0.6
 40
1.0
 40
1.0
 40
1.0
 40
1.0
 10
39.3684
 20
-10.3337
 30
0.0
 10
39.8882
 20
-10.3337
 30
0.0
 10
40.3981
 20
-10.3052
 30
0.0
 10
40.9022
 20
-10.4486
 30
0.0
 10
40.9022
 20
-10.4486
 30
0.0
 10
41.1701
 20
-10.5249
 30
0.0
 10
41.4271
 20
-10.6383
 30
0.0
 10
41.6638
 20
-10.7849
 30
0.0
 10
41.6638
 20
-10.7849
 30
0.0
 10
41.9004
 20
-10.9316
 30
0.0
 10
42.1168
 20
-11.1111
 30
0.0
 10
42.3044
 20
-11.3168
 30
0.0
 10
42.3044
 20
-11.3168
 30
0.0
 10
42.7434
 20
-11.7984
 30
0.0
 10
43.0177
 20
-12.4199
 30
0.0
 10
43.0779
 20
-13.0688
 30
0.0
  0
SPLINE
  5
158
330
1F
100
AcDbEntity
  8
Ilustrace
 62
   250
370
    30
100
AcDbSpline
210
0.0
220
0.0
230
1.0
 70
     8
 71
     3
 72
    20
 73
    16
 74
     0
 42
0.0000000001
 43
0.0000000001
 40
0.0
 40
0.0
 40
0.0
 40
0.0
 40
0.2
 40
0.2
 40
0.2
 40
0.2
 40
0.4
 40
0.4
 40
0.4
 40
0.4
 40
0.6
 40
0.6
 40
0.6
 40
0.6
 40
1.0
 40
1.0
 40
1.0
 40
1.0
 10
43.0779
 20
-13.0688
 30
0.0
 10
43.0779
 20
-13.0688
 30
0.0
 10
43.0908
 20
-13.347
 30
0.0
 10
43.0908
 20
-13.347
 30
0.0
 10
43.0908
 20
-13.347
 30
0.0
 10
43.0908
 20
-13.347
 30
0.0
 10
43.0908
 20
-14.0559
 30
0.0
 10
43.0908
 20
-14.0559
 30
0.0
 10
43.0908
 20
-14.0559
 30
0.0
 10
43.0908
 20
-14.0559
 30
0.0
 10
43.0908
 20
-14.6764
 30
0.0
 10
43.0908
 20
-14.6764
 30
0.0
 10
43.0908
 20
-14.6764
 30
0.0
 10
43.0908
 20
-14.6764
 30
0.0
 10
43.0908
 20
-15.3852
 30
0.0
 10
43.0908
 20
-15.3852
 30
0.0
  0
SPLINE
  5
159
330
1F
100
AcDbEntity
  8
Ilustrace
 62
   250
370
    30
100
AcDbSpline
210
0.0
220
0.0
230
1.0
 70
     8
 71
     3
 72
    16
 73
    12
 74
     0
 42
0.0000000001
 43
0.0000000001
 40
0.0
 40
0.0
 40
0.0
 40
0.0
 40
0.25
 40
0.25
 40
0.25
 40
0.25
 40
0.5
 40
0.5
 40
0.5
 40
0.5
 40
1.0
 40
1.0
 40
1.0
 40
1.0
 10
41.6058
 20
-22.1179
 30
0.0
 10
41.5775
 20
-22.307
 30
0.0
 10
41.5315
 20
-22.6723
 30
0.0
 10
41.4566
 20
-22.8496
 30
0.0
 10
41.4566
 20
-22.8496
 30
0.0
 10
41.212
 20
-23.4311
 30
0.0
 10
40.6771
 20
-23.8581
 30
0.0
 10
40.0566
 20
-23.9705
 30
0.0
 10
40.0566
 20
-23.9705
 30
0.0
 10
39.7138
 20
-24.0323
 30
0.0
 10
39.308
 20
-24.0001
 30
0.0
 10
38.9788
 20
-24.0001
 30
0.0
  0
SPLINE
  5
15A
330
1F
100
AcDbEntity
  8
Ilustrace
 62
   250
370
    30
100
AcDbSpline
210
0.0
220
0.0
230
1.0
 70
     8
 71
     3
 72
    12
 73
     8
 74
     0
 42
0.0000000001
 43
0.0000000001
 40
0.0
 40
0.0
 40
0.0
 40
0.0
 40
0.3333333333333333
 40
0.3333333333333333
 40
0.3333333333333333
 40
0.3333333333333333
 40
1.0
 40
1.0
 40
1.0
 40
1.0
 10
38.9788
 20
-24.0001
 30
0.0
 10
38.9788
 20
-24.0001
 30
0.0
 10
12.0711
 20
-24.0002
 30
0.0
 10
12.0711
 20
-24.0002
 30
0.0
 10
12.0711
 20
-24.0002
 30
0.0
 10
12.0711
 20
-24.0002
 30
0.0
 10
11.3623
 20
-24.0002
 30
0.0
 10
11.3623
 20
-24.0002
 30
0.0
  0
SPLINE
  5
15B
330
1F
100
AcDbEntity
  8
Ilustrace
 62
   250
370
    30
100
AcDbSpline
210
0.0
220
0.0
230
1.0
 70
     8
 71
     3
 72
    16
 73
    12
 74
     0
 42
0.0000000001
 43
0.0000000001
 40
0.0
 40
0.0
 40
0.0
 40
0.0
 40
0.25
 40
0.25
 40
0.25
 40
0.25
 40
0.5
 40
0.5
 40
0.5
 40
0.5
 40
1.0
 40
1.0
 40
1.0
 40
1.0
 10
11.3623
 20
-24.0002
 30
0.0
 10
11.1262
 20
-23.9885
 30
0.0
 10
10.9039
 20
-23.9564
 30
0.0
 10
10.6837
 20
-23.8652
 30
0.0
 10
10.6837
 20
-23.8652
 30
0.0
 10
10.1415
 20
-23.6407
 30
0.0
 10
9.7381
 20
-23.1488
 30
0.0
 10
9.6234
 20
-22.5731
 30
0.0
 10
9.6234
 20
-22.5731
 30
0.0
 10
9.5565
 20
-22.2367
 30
0.0
 10
9.5894
 20
-21.8429
 30
0.0
 10
9.5894
 20
-21.5185
 30
0.0
  0
SPLINE
  5
15C
330
1F
100
AcDbEntity
  8
Ilustrace
 62
   250
370
    30
100
AcDbSpline
210
0.0
220
0.0
230
1.0
 70
    24
 71
     3
 72
     8
 73
     4
 74
     0
 42
0.0000000001
 43
0.0000000001
 40
0.0
 40
0.0
 40
0.0
 40
0.0
 40
1.0
 40
1.0
 40
1.0
 40
1.0
 10
9.5894
 20
-21.5185
 30
0.0
 10
9.5894
 20
-21.5185
 30
0.0
 10
9.5896
 20
-19.2346
 30
0.0
 10
9.5896
 20
-19.2346
 30
0.0
  0
SPLINE
  5
15D
330
1F
100
AcDbEntity
  8
Ilustrace
 62
   250
370
    30
100
AcDbSpline
210
0.0
220
0.0
230
1.0
 70
     8
 71
     3
 72
     8
 73
     4
 74
     0
 42
0.0000000001
 43
0.0000000001
 40
0.0
 40
0.0
 40
0.0
 40
0.0
 40
1.0
 40
1.0
 40
1.0
 40
1.0
 10
9.5896
 20
-19.2346
 30
0.0
 10
9.5896
 20
-19.0202
 30
0.0
 10
9.4529
 20
-18.4668
 30
0.0
 10
9.7326
 20
-18.2758
 30
0.0
  0
SPLINE
  5
15E
330
1F
100
AcDbEntity
  8
Ilustrace
 62
   250
370
    30
100
AcDbSpline
210
0.0
220
0.0
230
1.0
 70
     8
 71
     3
 72
     8
 73
     4
 74
     0
 42
0.0000000001
 43
0.0000000001
 40
0.0
 40
0.0
 40
0.0
 40
0.0
 40
1.0
 40
1.0
 40
1.0
 40
1.0
 10
9.7098
 20
-18.2296
 30
0.0
 10
9.7021
 20
-18.2064
 30
0.0
 10
9.6962
 20
-18.1949
 30
0.0
 10
9.6961
 20
-18.17
 30
0.0
  0
SPLINE
  5
15F
330
1F
100
AcDbEntity
  8
Ilustrace
 62
   250
370
    30
100
AcDbSpline
210
0.0
220
0.0
230
1.0
 70
    24
 71
     3
 72
     8
 73
     4
 74
     0
 42
0.0000000001
 43
0.0000000001
 40
0.0
 40
0.0
 40
0.0
 40
0.0
 40
1.0
 40
1.0
 40
1.0
 40
1.0
 10
9.6961
 20
-18.17
 30
0.0
 10
9.6961
 20
-18.17
 30
0.0
 10
9.6961
 20
-17.564
 30
0.0
 10
9.6961
 20
-17.564
 30
0.0
  0
SPLINE
  5
160
330
1F
100
AcDbEntity
  8
Ilustrace
 62
   250
370
    30
100
AcDbSpline
210
0.0
220
0.0
230
1.0
 70
     8
 71
     3
 72
     8
 73
     4
 74
     0
 42
0.0000000001
 43
0.0000000001
 40
0.0
 40
0.0
 40
0.0
 40
0.0
 40
1.0
 40
1.0
 40
1.0
 40
1.0
 10
9.6961
 20
-17.564
 30
0.0
 10
9.6971
 20
-17.2062
 30
0.0
 10
10.4589
 20
-17.3961
 30
0.0
 10
10.4965
 20
-17.3961
 30
0.0
  0
SPLINE
  5
161
330
1F
100
AcDbEntity
  8
Ilustrace
 62
   250
370
    30
100
AcDbSpline
210
0.0
220
0.0
230
1.0
 70
    24
 71
     3
 72
     8
 73
     4
 74
     0
 42
0.0000000001
 43
0.0000000001
 40
0.0
 40
0.0
 40
0.0
 40
0.0
 40
1.0
 40
1.0
 40
1.0
 40
1.0
 10
10.4965
 20
-17.3961
 30
0.0
 10
10.4965
 20
-17.3961
 30
0.0
 10
21.4146
 20
-17.3941
 30
0.0
 10
21.4146
 20
-17.3941
 30
0.0
  0
SPLINE
  5
162
330
1F
100
AcDbEntity
  8
Ilustrace
 62
   250
370
    30
100
AcDbSpline
210
0.0
220
0.0
230
1.0
 70
     8
 71
     3
 72
    12
 73
     8
 74
     0
 42
0.0000000001
 43
0.0000000001
 40
0.0
 40
0.0
 40
0.0
 40
0.0
 40
0.3333333333333333
 40
0.3333333333333333
 40
0.3333333333333333
 40
0.3333333333333333
 40
1.0
 40
1.0
 40
1.0
 40
1.0
 10
21.4146
 20
-17.3941
 30
0.0
 10
22.0572
 20
-17.394
 30
0.0
 10
22.698
 20
-17.3845
 30
0.0
 10
23.3402
 20
-17.3635
 30
0.0
 10
23.3402
 20
-17.3635
 30
0.0
 10
23.7632
 20
-17.3499
 30
0.0
 10
24.1444
 20
-17.3346
 30
0.0
 10
24.5574
 20
-17.2702
 30
0.0
  0
SPLINE
  5
163
330
1F
100
AcDbEntity
  8
Ilustrace
 62
   250
370
    30
100
AcDbSpline
210
0.0
220
0.0
230
1.0
 70
     8
 71
     3
 72
    12
 73
     8
 74
     0
 42
0.0000000001
 43
0.0000000001
 40
0.0
 40
0.0
 40
0.0
 40
0.0
 40
0.3333333333333333
 40
0.3333333333333333
 40
0.3333333333333333
 40
0.3333333333333333
 40
1.0
 40
1.0
 40
1.0
 40
1.0
 10
41.6058
 20
-22.1179
 30
0.0
 10
41.6058
 20
-22.1179
 30
0.0
 10
41.6058
 20
-21.4088
 30
0.0
 10
41.6058
 20
-21.4088
 30
0.0
 10
41.6058
 20
-21.4088
 30
0.0
 10
41.6058
 20
-21.4088
 30
0.0
 10
41.6039
 20
-14.3249
 30
0.0
 10
41.6039
 20
-14.3249
 30
0.0
  0
SPLINE
  5
164
330
1F
100
AcDbEntity
  8
Ilustrace
 62
   250
370
    30
100
AcDbSpline
210
0.0
220
0.0
230
1.0
 70
     8
 71
     3
 72
    16
 73
    12
 74
     0
 42
0.0000000001
 43
0.0000000001
 40
0.0
 40
0.0
 40
0.0
 40
0.0
 40
0.25
 40
0.25
 40
0.25
 40
0.25
 40
0.5
 40
0.5
 40
0.5
 40
0.5
 40
1.0
 40
1.0
 40
1.0
 40
1.0
 10
41.6039
 20
-14.3249
 30
0.0
 10
41.6039
 20
-13.9877
 30
0.0
 10
41.6364
 20
-13.5889
 30
0.0
 10
41.5669
 20
-13.2427
 30
0.0
 10
41.5669
 20
-13.2427
 30
0.0
 10
41.4166
 20
-12.4941
 30
0.0
 10
40.8075
 20
-11.8991
 30
0.0
 10
40.0566
 20
-11.7635
 30
0.0
 10
40.0566
 20
-11.7635
 30
0.0
 10
39.7138
 20
-11.7016
 30
0.0
 10
39.3083
 20
-11.7338
 30
0.0
 10
38.9788
 20
-11.7338
 30
0.0
  0
SPLINE
  5
165
330
1F
100
AcDbEntity
  8
Ilustrace
 62
   250
370
    30
100
AcDbSpline
210
0.0
220
0.0
230
1.0
 70
    24
 71
     3
 72
    12
 73
     8
 74
     0
 42
0.0000000001
 43
0.0000000001
 40
0.0
 40
0.0
 40
0.0
 40
0.0
 40
0.3333333333333333
 40
0.3333333333333333
 40
0.3333333333333333
 40
0.3333333333333333
 40
1.0
 40
1.0
 40
1.0
 40
1.0
 10
38.9788
 20
-11.7338
 30
0.0
 10
38.9788
 20
-11.7338
 30
0.0
 10
12.0711
 20
-11.7338
 30
0.0
 10
12.0711
 20
-11.7338
 30
0.0
 10
12.0711
 20
-11.7338
 30
0.0
 10
12.0711
 20
-11.7338
 30
0.0
 10
11.3623
 20
-11.7338
 30
0.0
 10
11.3623
 20
-11.7338
 30
0.0
  0
SPLINE
  5
166
330
1F
100
AcDbEntity
  8
Ilustrace
 62
   250
370
    30
100
AcDbSpline
210
0.0
220
0.0
230
1.0
 70
     8
 71
     3
 72
    16
 73
    12
 74
     0
 42
0.0000000001
 43
0.0000000001
 40
0.0
 40
0.0
 40
0.0
 40
0.0
 40
0.25
 40
0.25
 40
0.25
 40
0.25
 40
0.5
 40
0.5
 40
0.5
 40
0.5
 40
1.0
 40
1.0
 40
1.0
 40
1.0
 10
11.3623
 20
-11.7338
 30
0.0
 10
11.1263
 20
-11.7455
 30
0.0
 10
10.9039
 20
-11.7776
 30
0.0
 10
10.6839
 20
-11.8688
 30
0.0
 10
10.6839
 20
-11.8688
 30
0.0
 10
10.1416
 20
-12.0933
 30
0.0
 10
9.7381
 20
-12.5852
 30
0.0
 10
9.6236
 20
-13.1606
 30
0.0
 10
9.6236
 20
-13.1606
 30
0.0
 10
9.5568
 20
-13.497
 30
0.0
 10
9.5896
 20
-13.8911
 30
0.0
 10
9.5896
 20
-14.2155
 30
0.0
  0
SPLINE
  5
167
330
1F
100
AcDbEntity
  8
Ilustrace
 62
   250
370
    30
100
AcDbSpline
210
0.0
220
0.0
230
1.0
 70
    24
 71
     3
 72
     8
 73
     4
 74
     0
 42
0.0000000001
 43
0.0000000001
 40
0.0
 40
0.0
 40
0.0
 40
0.0
 40
1.0
 40
1.0
 40
1.0
 40
1.0
 10
9.5896
 20
-14.2155
 30
0.0
 10
9.5896
 20
-14.2155
 30
0.0
 10
9.5894
 20
-16.4994
 30
0.0
 10
9.5894
 20
-16.4994
 30
0.0
  0
SPLINE
  5
168
330
1F
100
AcDbEntity
  8
Ilustrace
 62
   250
370
    30
100
AcDbSpline
210
0.0
220
0.0
230
1.0
 70
     8
 71
     3
 72
     8
 73
     4
 74
     0
 42
0.0000000001
 43
0.0000000001
 40
0.0
 40
0.0
 40
0.0
 40
0.0
 40
1.0
 40
1.0
 40
1.0
 40
1.0
 10
9.5894
 20
-16.4994
 30
0.0
 10
9.5894
 20
-16.6868
 30
0.0
 10
9.4684
 20
-17.2224
 30
0.0
 10
9.6969
 20
-17.4338
 30
0.0
  0
SPLINE
  5
169
330
1F
100
AcDbEntity
  8
Ilustrace
 62
   250
370
    30
100
AcDbSpline
210
0.0
220
0.0
230
1.0
 70
     8
 71
     3
 72
    12
 73
     8
 74
     0
 42
0.0000000001
 43
0.0000000001
 40
0.0
 40
0.0
 40
0.0
 40
0.0
 40
0.3333333333333333
 40
0.3333333333333333
 40
0.3333333333333333
 40
0.3333333333333333
 40
1.0
 40
1.0
 40
1.0
 40
1.0
 10
35.0218
 20
-23.4379
 30
0.0
 10
35.3477
 20
-23.4743
 30
0.0
 10
35.5514
 20
-23.4908
 30
0.0
 10
35.8983
 20
-23.4972
 30
0.0
 10
35.8983
 20
-23.4972
 30
0.0
 10
36.2163
 20
-23.503
 30
0.0
 10
36.5178
 20
-23.5225
 30
0.0
 10
36.8301
 20
-23.4705
 30
0.0
  0
SPLINE
  5
16A
330
1F
100
AcDbEntity
  8
Ilustrace
 62
   250
370
    30
100
AcDbSpline
210
0.0
220
0.0
230
1.0
 70
     8
 71
     3
 72
    28
 73
    24
 74
     0
 42
0.0000000001
 43
0.0000000001
 40
0.0
 40
0.0
 40
0.0
 40
0.0
 40
0.1428571428571428
 40
0.1428571428571428
 40
0.1428571428571428
 40
0.1428571428571428
 40
0.2857142857142857
 40
0.2857142857142857
 40
0.2857142857142857
 40
0.2857142857142857
 40
0.4285714285714285
 40
0.4285714285714285
 40
0.4285714285714285
 40
0.4285714285714285
 40
0.5714285714285714
 40
0.5714285714285714
 40
0.5714285714285714
 40
0.5714285714285714
 40
0.7142857142857143
 40
0.7142857142857143
 40
0.7142857142857143
 40
0.7142857142857143
 40
1.0
 40
1.0
 40
1.0
 40
1.0
 10
37.8914
 20
-22.6811
 30
0.0
 10
38.0354
 20
-22.77
 30
0.0
 10
38.1777
 20
-22.9534
 30
0.0
 10
38.3066
 20
-23.0612
 30
0.0
 10
38.3066
 20
-23.0612
 30
0.0
 10
38.5135
 20
-23.234
 30
0.0
 10
38.7509
 20
-23.3709
 30
0.0
 10
39.0022
 20
-23.4672
 30
0.0
 10
39.0022
 20
-23.4672
 30
0.0
 10
39.0732
 20
-23.4945
 30
0.0
 10
39.1742
 20
-23.5366
 30
0.0
 10
39.25
 20
-23.5465
 30
0.0
 10
39.25
 20
-23.5465
 30
0.0
 10
39.4144
 20
-23.5679
 30
0.0
 10
39.618
 20
-23.5111
 30
0.0
 10
39.7716
 20
-23.4618
 30
0.0
 10
39.7716
 20
-23.4618
 30
0.0
 10
40.2709
 20
-23.3024
 30
0.0
 10
40.7141
 20
-22.9302
 30
0.0
 10
40.8569
 20
-22.4119
 30
0.0
 10
40.8569
 20
-22.4119
 30
0.0
 10
40.9458
 20
-22.0896
 30
0.0
 10
40.9043
 20
-21.7007
 30
0.0
 10
40.904
 20
-21.3874
 30
0.0
  0
SPLINE
  5
16B
330
1F
100
AcDbEntity
  8
Ilustrace
 62
   250
370
    30
100
AcDbSpline
210
0.0
220
0.0
230
1.0
 70
    24
 71
     3
 72
     8
 73
     4
 74
     0
 42
0.0000000001
 43
0.0000000001
 40
0.0
 40
0.0
 40
0.0
 40
0.0
 40
1.0
 40
1.0
 40
1.0
 40
1.0
 10
40.904
 20
-21.3874
 30
0.0
 10
40.904
 20
-21.3874
 30
0.0
 10
40.9032
 20
-20.7152
 30
0.0
 10
40.9032
 20
-20.7152
 30
0.0
  0
SPLINE
  5
16C
330
1F
100
AcDbEntity
  8
Ilustrace
 62
   250
370
    30
100
AcDbSpline
210
0.0
220
0.0
230
1.0
 70
     8
 71
     3
 72
     8
 73
     4
 74
     0
 42
0.0000000001
 43
0.0000000001
 40
0.0
 40
0.0
 40
0.0
 40
0.0
 40
1.0
 40
1.0
 40
1.0
 40
1.0
 10
40.9032
 20
-20.7152
 30
0.0
 10
40.9032
 20
-20.6788
 30
0.0
 10
40.8923
 20
-20.6496
 30
0.0
 10
40.877
 20
-20.6171
 30
0.0
  0
SPLINE
  5
16D
330
1F
100
AcDbEntity
  8
Ilustrace
 62
   250
370
    30
100
AcDbSpline
210
0.0
220
0.0
230
1.0
 70
     8
 71
     3
 72
     8
 73
     4
 74
     0
 42
0.0000000001
 43
0.0000000001
 40
0.0
 40
0.0
 40
0.0
 40
0.0
 40
1.0
 40
1.0
 40
1.0
 40
1.0
 10
40.8993
 20
-19.7258
 30
0.0
 10
40.9154
 20
-19.6937
 30
0.0
 10
40.9274
 20
-19.6645
 30
0.0
 10
40.9276
 20
-19.6278
 30
0.0
  0
SPLINE
  5
16E
330
1F
100
AcDbEntity
  8
Ilustrace
 62
   250
370
    30
100
AcDbSpline
210
0.0
220
0.0
230
1.0
 70
     8
 71
     3
 72
    16
 73
    12
 74
     0
 42
0.0000000001
 43
0.0000000001
 40
0.0
 40
0.0
 40
0.0
 40
0.0
 40
0.25
 40
0.25
 40
0.25
 40
0.25
 40
0.5
 40
0.5
 40
0.5
 40
0.5
 40
1.0
 40
1.0
 40
1.0
 40
1.0
 10
40.9276
 20
-19.6278
 30
0.0
 10
40.9276
 20
-19.6278
 30
0.0
 10
40.9276
 20
-18.9186
 30
0.0
 10
40.9276
 20
-18.9186
 30
0.0
 10
40.9276
 20
-18.9186
 30
0.0
 10
40.9276
 20
-18.9186
 30
0.0
 10
40.9274
 20
-16.8151
 30
0.0
 10
40.9274
 20
-16.8151
 30
0.0
 10
40.9274
 20
-16.8151
 30
0.0
 10
40.9274
 20
-16.8151
 30
0.0
 10
40.9274
 20
-16.1062
 30
0.0
 10
40.9274
 20
-16.1062
 30
0.0
  0
SPLINE
  5
16F
330
1F
100
AcDbEntity
  8
Ilustrace
 62
   250
370
    30
100
AcDbSpline
210
0.0
220
0.0
230
1.0
 70
     8
 71
     3
 72
     8
 73
     4
 74
     0
 42
0.0000000001
 43
0.0000000001
 40
0.0
 40
0.0
 40
0.0
 40
0.0
 40
1.0
 40
1.0
 40
1.0
 40
1.0
 10
40.9274
 20
-16.1062
 30
0.0
 10
40.9274
 20
-16.0692
 30
0.0
 10
40.9156
 20
-16.0403
 30
0.0
 10
40.8993
 20
-16.0079
 30
0.0
  0
SPLINE
  5
170
330
1F
100
AcDbEntity
  8
Ilustrace
 62
   250
370
    30
100
AcDbSpline
210
0.0
220
0.0
230
1.0
 70
     8
 71
     3
 72
     8
 73
     4
 74
     0
 42
0.0000000001
 43
0.0000000001
 40
0.0
 40
0.0
 40
0.0
 40
0.0
 40
1.0
 40
1.0
 40
1.0
 40
1.0
 10
40.8993
 20
-15.1171
 30
0.0
 10
40.9154
 20
-15.085
 30
0.0
 10
40.9274
 20
-15.0558
 30
0.0
 10
40.9276
 20
-15.019
 30
0.0
  0
SPLINE
  5
171
330
1F
100
AcDbEntity
  8
Ilustrace
 62
   250
370
    30
100
AcDbSpline
210
0.0
220
0.0
230
1.0
 70
    24
 71
     3
 72
     8
 73
     4
 74
     0
 42
0.0000000001
 43
0.0000000001
 40
0.0
 40
0.0
 40
0.0
 40
0.0
 40
1.0
 40
1.0
 40
1.0
 40
1.0
 10
40.9276
 20
-15.019
 30
0.0
 10
40.9276
 20
-15.019
 30
0.0
 10
40.9276
 20
-14.3466
 30
0.0
 10
40.9276
 20
-14.3466
 30
0.0
  0
SPLINE
  5
172
330
1F
100
AcDbEntity
  8
Ilustrace
 62
   250
370
    30
100
AcDbSpline
210
0.0
220
0.0
230
1.0
 70
     8
 71
     3
 72
    20
 73
    16
 74
     0
 42
0.0000000001
 43
0.0000000001
 40
0.0
 40
0.0
 40
0.0
 40
0.0
 40
0.2
 40
0.2
 40
0.2
 40
0.2
 40
0.4
 40
0.4
 40
0.4
 40
0.4
 40
0.6
 40
0.6
 40
0.6
 40
0.6
 40
1.0
 40
1.0
 40
1.0
 40
1.0
 10
40.9276
 20
-14.3466
 30
0.0
 10
40.9276
 20
-14.0258
 30
0.0
 10
40.9693
 20
-13.6316
 30
0.0
 10
40.8788
 20
-13.3033
 30
0.0
 10
40.8788
 20
-13.3033
 30
0.0
 10
40.6858
 20
-12.6032
 30
0.0
 10
39.9589
 20
-12.143
 30
0.0
 10
39.253
 20
-12.1323
 30
0.0
 10
39.253
 20
-12.1323
 30
0.0
 10
39.1223
 20
-12.1405
 30
0.0
 10
38.9812
 20
-12.2088
 30
0.0
 10
38.863
 20
-12.261
 30
0.0
 10
38.863
 20
-12.261
 30
0.0
 10
38.4936
 20
-12.4244
 30
0.0
 10
38.1936
 20
-12.67
 30
0.0
 10
37.9374
 20
-12.9796
 30
0.0
  0
SPLINE
  5
173
330
1F
100
AcDbEntity
  8
Ilustrace
 62
   250
370
    30
100
AcDbSpline
210
0.0
220
0.0
230
1.0
 70
     8
 71
     3
 72
     8
 73
     4
 74
     0
 42
0.0000000001
 43
0.0000000001
 40
0.0
 40
0.0
 40
0.0
 40
0.0
 40
1.0
 40
1.0
 40
1.0
 40
1.0
 10
37.8181
 20
-15.2081
 30
0.0
 10
37.861
 20
-14.6631
 30
0.0
 10
37.9083
 20
-14.117
 30
0.0
 10
37.9467
 20
-13.5718
 30
0.0
  0
SPLINE
  5
174
330
1F
100
AcDbEntity
  8
Ilustrace
 62
   250
370
    30
100
AcDbSpline
210
0.0
220
0.0
230
1.0
 70
     8
 71
     3
 72
    12
 73
     8
 74
     0
 42
0.0000000001
 43
0.0000000001
 40
0.0
 40
0.0
 40
0.0
 40
0.0
 40
0.3333333333333333
 40
0.3333333333333333
 40
0.3333333333333333
 40
0.3333333333333333
 40
1.0
 40
1.0
 40
1.0
 40
1.0
 10
37.9467
 20
-13.5718
 30
0.0
 10
37.9467
 20
-13.5718
 30
0.0
 10
37.9713
 20
-13.1377
 30
0.0
 10
37.9713
 20
-13.1377
 30
0.0
 10
37.9713
 20
-13.1377
 30
0.0
 10
37.9713
 20
-13.1377
 30
0.0
 10
37.9606
 20
-13.0572
 30
0.0
 10
37.9606
 20
-13.0572
 30
0.0
  0
SPLINE
  5
175
330
1F
100
AcDbEntity
  8
Ilustrace
 62
   250
370
    30
100
AcDbSpline
210
0.0
220
0.0
230
1.0
 70
     8
 71
     3
 72
     8
 73
     4
 74
     0
 42
0.0000000001
 43
0.0000000001
 40
0.0
 40
0.0
 40
0.0
 40
0.0
 40
1.0
 40
1.0
 40
1.0
 40
1.0
 10
41.079
 20
-15.0618
 30
0.0
 10
41.0547
 20
-15.1514
 30
0.0
 10
40.9933
 20
-15.2002
 30
0.0
 10
40.9013
 20
-15.2081
 30
0.0
  0
SPLINE
  5
176
330
1F
100
AcDbEntity
  8
Ilustrace
 62
   250
370
    30
100
AcDbSpline
210
0.0
220
0.0
230
1.0
 70
     8
 71
     3
 72
    16
 73
    12
 74
     0
 42
0.0000000001
 43
0.0000000001
 40
0.0
 40
0.0
 40
0.0
 40
0.0
 40
0.25
 40
0.25
 40
0.25
 40
0.25
 40
0.5
 40
0.5
 40
0.5
 40
0.5
 40
1.0
 40
1.0
 40
1.0
 40
1.0
 10
40.9013
 20
-15.2081
 30
0.0
 10
40.9013
 20
-15.2081
 30
0.0
 10
40.2145
 20
-15.2058
 30
0.0
 10
40.2145
 20
-15.2058
 30
0.0
 10
40.2145
 20
-15.2058
 30
0.0
 10
40.2145
 20
-15.2058
 30
0.0
 10
39.5164
 20
-15.2025
 30
0.0
 10
39.5164
 20
-15.2025
 30
0.0
 10
39.5164
 20
-15.2025
 30
0.0
 10
39.5164
 20
-15.2025
 30
0.0
 10
39.3136
 20
-15.1644
 30
0.0
 10
39.3136
 20
-15.1644
 30
0.0
  0
SPLINE
  5
177
330
1F
100
AcDbEntity
  8
Ilustrace
 62
   250
370
    30
100
AcDbSpline
210
0.0
220
0.0
230
1.0
 70
     8
 71
     3
 72
     8
 73
     4
 74
     0
 42
0.0000000001
 43
0.0000000001
 40
0.0
 40
0.0
 40
0.0
 40
0.0
 40
1.0
 40
1.0
 40
1.0
 40
1.0
 10
39.3136
 20
-15.1644
 30
0.0
 10
39.29
 20
-15.1334
 30
0.0
 10
39.2815
 20
-15.0855
 30
0.0
 10
39.271
 20
-15.0495
 30
0.0
  0
SPLINE
  5
178
330
1F
100
AcDbEntity
  8
Ilustrace
 62
   250
370
    30
100
AcDbSpline
210
0.0
220
0.0
230
1.0
 70
     8
 71
     3
 72
     8
 73
     4
 74
     0
 42
0.0000000001
 43
0.0000000001
 40
0.0
 40
0.0
 40
0.0
 40
0.0
 40
1.0
 40
1.0
 40
1.0
 40
1.0
 10
39.2538
 20
-16.1404
 30
0.0
 10
39.2684
 20
-16.0853
 30
0.0
 10
39.2779
 20
-16.0078
 30
0.0
 10
39.3137
 20
-15.9607
 30
0.0
  0
SPLINE
  5
179
330
1F
100
AcDbEntity
  8
Ilustrace
 62
   250
370
    30
100
AcDbSpline
210
0.0
220
0.0
230
1.0
 70
     8
 71
     3
 72
    12
 73
     8
 74
     0
 42
0.0000000001
 43
0.0000000001
 40
0.0
 40
0.0
 40
0.0
 40
0.0
 40
0.3333333333333333
 40
0.3333333333333333
 40
0.3333333333333333
 40
0.3333333333333333
 40
1.0
 40
1.0
 40
1.0
 40
1.0
 10
39.3137
 20
-15.9607
 30
0.0
 10
39.3137
 20
-15.9607
 30
0.0
 10
39.5164
 20
-15.9225
 30
0.0
 10
39.5164
 20
-15.9225
 30
0.0
 10
39.5164
 20
-15.9225
 30
0.0
 10
39.5164
 20
-15.9225
 30
0.0
 10
40.2145
 20
-15.9195
 30
0.0
 10
40.2145
 20
-15.9195
 30
0.0
  0
SPLINE
  5
17A
330
1F
100
AcDbEntity
  8
Ilustrace
 62
   250
370
    30
100
AcDbSpline
210
0.0
220
0.0
230
1.0
 70
     8
 71
     3
 72
     8
 73
     4
 74
     0
 42
0.0000000001
 43
0.0000000001
 40
0.0
 40
0.0
 40
0.0
 40
0.0
 40
1.0
 40
1.0
 40
1.0
 40
1.0
 10
40.2145
 20
-15.9195
 30
0.0
 10
40.2775
 20
-15.9191
 30
0.0
 10
40.996
 20
-15.7556
 30
0.0
 10
41.079
 20
-16.0635
 30
0.0
  0
SPLINE
  5
17B
330
1F
100
AcDbEntity
  8
Ilustrace
 62
   250
370
    30
100
AcDbSpline
210
0.0
220
0.0
230
1.0
 70
     8
 71
     3
 72
     8
 73
     4
 74
     0
 42
0.0000000001
 43
0.0000000001
 40
0.0
 40
0.0
 40
0.0
 40
0.0
 40
1.0
 40
1.0
 40
1.0
 40
1.0
 10
41.079
 20
-19.6705
 30
0.0
 10
41.0547
 20
-19.7598
 30
0.0
 10
40.9933
 20
-19.8087
 30
0.0
 10
40.9013
 20
-19.8169
 30
0.0
  0
SPLINE
  5
17C
330
1F
100
AcDbEntity
  8
Ilustrace
 62
   250
370
    30
100
AcDbSpline
210
0.0
220
0.0
230
1.0
 70
     8
 71
     3
 72
    16
 73
    12
 74
     0
 42
0.0000000001
 43
0.0000000001
 40
0.0
 40
0.0
 40
0.0
 40
0.0
 40
0.25
 40
0.25
 40
0.25
 40
0.25
 40
0.5
 40
0.5
 40
0.5
 40
0.5
 40
1.0
 40
1.0
 40
1.0
 40
1.0
 10
40.9013
 20
-19.8169
 30
0.0
 10
40.9013
 20
-19.8169
 30
0.0
 10
40.2145
 20
-19.8145
 30
0.0
 10
40.2145
 20
-19.8145
 30
0.0
 10
40.2145
 20
-19.8145
 30
0.0
 10
40.2145
 20
-19.8145
 30
0.0
 10
39.5164
 20
-19.8112
 30
0.0
 10
39.5164
 20
-19.8112
 30
0.0
 10
39.5164
 20
-19.8112
 30
0.0
 10
39.5164
 20
-19.8112
 30
0.0
 10
39.3136
 20
-19.7729
 30
0.0
 10
39.3136
 20
-19.7729
 30
0.0
  0
SPLINE
  5
17D
330
1F
100
AcDbEntity
  8
Ilustrace
 62
   250
370
    30
100
AcDbSpline
210
0.0
220
0.0
230
1.0
 70
     8
 71
     3
 72
     8
 73
     4
 74
     0
 42
0.0000000001
 43
0.0000000001
 40
0.0
 40
0.0
 40
0.0
 40
0.0
 40
1.0
 40
1.0
 40
1.0
 40
1.0
 10
39.3136
 20
-19.7729
 30
0.0
 10
39.2779
 20
-19.7258
 30
0.0
 10
39.2684
 20
-19.6485
 30
0.0
 10
39.2538
 20
-19.5935
 30
0.0
  0
SPLINE
  5
17E
330
1F
100
AcDbEntity
  8
Ilustrace
 62
   250
370
    30
100
AcDbSpline
210
0.0
220
0.0
230
1.0
 70
     8
 71
     3
 72
     8
 73
     4
 74
     0
 42
0.0000000001
 43
0.0000000001
 40
0.0
 40
0.0
 40
0.0
 40
0.0
 40
1.0
 40
1.0
 40
1.0
 40
1.0
 10
39.2538
 20
-20.7488
 30
0.0
 10
39.2684
 20
-20.6938
 30
0.0
 10
39.2779
 20
-20.6165
 30
0.0
 10
39.3137
 20
-20.5694
 30
0.0
  0
SPLINE
  5
17F
330
1F
100
AcDbEntity
  8
Ilustrace
 62
   250
370
    30
100
AcDbSpline
210
0.0
220
0.0
230
1.0
 70
     8
 71
     3
 72
    12
 73
     8
 74
     0
 42
0.0000000001
 43
0.0000000001
 40
0.0
 40
0.0
 40
0.0
 40
0.0
 40
0.3333333333333333
 40
0.3333333333333333
 40
0.3333333333333333
 40
0.3333333333333333
 40
1.0
 40
1.0
 40
1.0
 40
1.0
 10
39.3137
 20
-20.5694
 30
0.0
 10
39.3137
 20
-20.5694
 30
0.0
 10
39.5164
 20
-20.5312
 30
0.0
 10
39.5164
 20
-20.5312
 30
0.0
 10
39.5164
 20
-20.5312
 30
0.0
 10
39.5164
 20
-20.5312
 30
0.0
 10
40.2145
 20
-20.528
 30
0.0
 10
40.2145
 20
-20.528
 30
0.0
  0
SPLINE
  5
180
330
1F
100
AcDbEntity
  8
Ilustrace
 62
   250
370
    30
100
AcDbSpline
210
0.0
220
0.0
230
1.0
 70
     8
 71
     3
 72
     8
 73
     4
 74
     0
 42
0.0000000001
 43
0.0000000001
 40
0.0
 40
0.0
 40
0.0
 40
0.0
 40
1.0
 40
1.0
 40
1.0
 40
1.0
 10
40.2145
 20
-20.528
 30
0.0
 10
40.2775
 20
-20.5278
 30
0.0
 10
40.996
 20
-20.3643
 30
0.0
 10
41.079
 20
-20.6722
 30
0.0
  0
SPLINE
  5
181
330
1F
100
AcDbEntity
  8
Ilustrace
 62
   250
370
    30
100
AcDbSpline
210
0.0
220
0.0
230
1.0
 70
     8
 71
     3
 72
     8
 73
     4
 74
     0
 42
0.0000000001
 43
0.0000000001
 40
0.0
 40
0.0
 40
0.0
 40
0.0
 40
1.0
 40
1.0
 40
1.0
 40
1.0
 10
37.9306
 20
-13.0133
 30
0.0
 10
37.6876
 20
-12.5019
 30
0.0
 10
37.3202
 20
-12.2747
 30
0.0
 10
36.7986
 20
-12.2584
 30
0.0
  0
SPLINE
  5
182
330
1F
100
AcDbEntity
  8
Ilustrace
 62
   250
370
    30
100
AcDbSpline
210
0.0
220
0.0
230
1.0
 70
     8
 71
     3
 72
    12
 73
     8
 74
     0
 42
0.0000000001
 43
0.0000000001
 40
0.0
 40
0.0
 40
0.0
 40
0.0
 40
0.3333333333333333
 40
0.3333333333333333
 40
0.3333333333333333
 40
0.3333333333333333
 40
1.0
 40
1.0
 40
1.0
 40
1.0
 10
35.0218
 20
-12.2963
 30
0.0
 10
35.3484
 20
-12.2599
 30
0.0
 10
35.5503
 20
-12.243
 30
0.0
 10
35.8983
 20
-12.2368
 30
0.0
 10
35.8983
 20
-12.2368
 30
0.0
 10
36.2163
 20
-12.2308
 30
0.0
 10
36.5181
 20
-12.2111
 30
0.0
 10
36.8301
 20
-12.2635
 30
0.0
  0
SPLINE
  5
183
330
1F
100
AcDbEntity
  8
Ilustrace
 62
   250
370
    30
100
AcDbSpline
210
0.0
220
0.0
230
1.0
 70
     8
 71
     3
 72
     8
 73
     4
 74
     0
 42
0.0000000001
 43
0.0000000001
 40
0.0
 40
0.0
 40
0.0
 40
0.0
 40
1.0
 40
1.0
 40
1.0
 40
1.0
 10
37.859
 20
-22.2237
 30
0.0
 10
37.8106
 20
-21.6565
 30
0.0
 10
37.7466
 20
-21.0916
 30
0.0
 10
37.6858
 20
-20.5257
 30
0.0
  0
SPLINE
  5
184
330
1F
100
AcDbEntity
  8
Ilustrace
 62
   250
370
    30
100
AcDbSpline
210
0.0
220
0.0
230
1.0
 70
     8
 71
     3
 72
     8
 73
     4
 74
     0
 42
0.0000000001
 43
0.0000000001
 40
0.0
 40
0.0
 40
0.0
 40
0.0
 40
1.0
 40
1.0
 40
1.0
 40
1.0
 10
9.6979
 20
-18.1931
 30
0.0
 10
9.7506
 20
-18.3862
 30
0.0
 10
9.9168
 20
-18.3829
 30
0.0
 10
10.0909
 20
-18.3834
 30
0.0
  0
SPLINE
  5
185
330
1F
100
AcDbEntity
  8
Ilustrace
 62
   250
370
    30
100
AcDbSpline
210
0.0
220
0.0
230
1.0
 70
    24
 71
     3
 72
     8
 73
     4
 74
     0
 42
0.0000000001
 43
0.0000000001
 40
0.0
 40
0.0
 40
0.0
 40
0.0
 40
1.0
 40
1.0
 40
1.0
 40
1.0
 10
10.0909
 20
-18.3834
 30
0.0
 10
10.0909
 20
-18.3834
 30
0.0
 10
10.7997
 20
-18.3834
 30
0.0
 10
10.7997
 20
-18.3834
 30
0.0
  0
SPLINE
  5
186
330
1F
100
AcDbEntity
  8
Ilustrace
 62
   250
370
    30
100
AcDbSpline
210
0.0
220
0.0
230
1.0
 70
     8
 71
     3
 72
     8
 73
     4
 74
     0
 42
0.0000000001
 43
0.0000000001
 40
0.0
 40
0.0
 40
0.0
 40
0.0
 40
1.0
 40
1.0
 40
1.0
 40
1.0
 10
10.7997
 20
-18.3834
 30
0.0
 10
14.8766
 20
-18.3831
 30
0.0
 10
18.928
 20
-18.3996
 30
0.0
 10
23.0038
 20
-18.437
 30
0.0
  0
SPLINE
  5
187
330
1F
100
AcDbEntity
  8
Ilustrace
 62
   250
370
    30
100
AcDbSpline
210
0.0
220
0.0
230
1.0
 70
     8
 71
     3
 72
    12
 73
     8
 74
     0
 42
0.0000000001
 43
0.0000000001
 40
0.0
 40
0.0
 40
0.0
 40
0.0
 40
0.3333333333333333
 40
0.3333333333333333
 40
0.3333333333333333
 40
0.3333333333333333
 40
1.0
 40
1.0
 40
1.0
 40
1.0
 10
23.0038
 20
-18.437
 30
0.0
 10
23.0038
 20
-18.437
 30
0.0
 10
23.7126
 20
-18.4437
 30
0.0
 10
23.7126
 20
-18.4437
 30
0.0
 10
23.7126
 20
-18.4437
 30
0.0
 10
23.7126
 20
-18.4437
 30
0.0
 10
24.0828
 20
-18.4556
 30
0.0
 10
24.0828
 20
-18.4556
 30
0.0
  0
SPLINE
  5
188
330
1F
100
AcDbEntity
  8
Ilustrace
 62
   250
370
    30
100
AcDbSpline
210
0.0
220
0.0
230
1.0
 70
     8
 71
     3
 72
     8
 73
     4
 74
     0
 42
0.0000000001
 43
0.0000000001
 40
0.0
 40
0.0
 40
0.0
 40
0.0
 40
1.0
 40
1.0
 40
1.0
 40
1.0
 10
24.0828
 20
-18.4556
 30
0.0
 10
24.4535
 20
-18.4673
 30
0.0
 10
24.3837
 20
-18.3991
 30
0.0
 10
24.5605
 20
-18.557
 30
0.0
  0
SPLINE
  5
189
330
1F
100
AcDbEntity
  8
Ilustrace
 62
   250
370
    30
100
AcDbSpline
210
0.0
220
0.0
230
1.0
 70
    24
 71
     3
 72
     8
 73
     4
 74
     0
 42
0.0000000001
 43
0.0000000001
 40
0.0
 40
0.0
 40
0.0
 40
0.0
 40
1.0
 40
1.0
 40
1.0
 40
1.0
 10
28.6406
 20
-12.3158
 30
0.0
 10
28.6406
 20
-12.3158
 30
0.0
 10
27.2336
 20
-12.3158
 30
0.0
 10
27.2336
 20
-12.3158
 30
0.0
  0
SPLINE
  5
18A
330
1F
100
AcDbEntity
  8
Ilustrace
 62
   250
370
    30
100
AcDbSpline
210
0.0
220
0.0
230
1.0
 70
     8
 71
     3
 72
    20
 73
    16
 74
     0
 42
0.0000000001
 43
0.0000000001
 40
0.0
 40
0.0
 40
0.0
 40
0.0
 40
0.2
 40
0.2
 40
0.2
 40
0.2
 40
0.4
 40
0.4
 40
0.4
 40
0.4
 40
0.6
 40
0.6
 40
0.6
 40
0.6
 40
1.0
 40
1.0
 40
1.0
 40
1.0
 10
27.2336
 20
-12.3158
 30
0.0
 10
27.1011
 20
-12.3237
 30
0.0
 10
26.9784
 20
-12.3377
 30
0.0
 10
26.8528
 20
-12.3847
 30
0.0
 10
26.8528
 20
-12.3847
 30
0.0
 10
26.7722
 20
-12.4152
 30
0.0
 10
26.6952
 20
-12.4553
 30
0.0
 10
26.6242
 20
-12.504
 30
0.0
 10
26.6242
 20
-12.504
 30
0.0
 10
26.5533
 20
-12.5527
 30
0.0
 10
26.4884
 20
-12.6096
 30
0.0
 10
26.4312
 20
-12.6739
 30
0.0
 10
26.4312
 20
-12.6739
 30
0.0
 10
26.0789
 20
-13.0692
 30
0.0
 10
26.1637
 20
-13.5934
 30
0.0
 10
26.1637
 20
-14.0856
 30
0.0
  0
SPLINE
  5
18B
330
1F
100
AcDbEntity
  8
Ilustrace
 62
   250
370
    30
100
AcDbSpline
210
0.0
220
0.0
230
1.0
 70
    24
 71
     3
 72
    12
 73
     8
 74
     0
 42
0.0000000001
 43
0.0000000001
 40
0.0
 40
0.0
 40
0.0
 40
0.0
 40
0.3333333333333333
 40
0.3333333333333333
 40
0.3333333333333333
 40
0.3333333333333333
 40
1.0
 40
1.0
 40
1.0
 40
1.0
 10
26.1637
 20
-14.0856
 30
0.0
 10
26.1637
 20
-14.0856
 30
0.0
 10
26.1637
 20
-14.499
 30
0.0
 10
26.1637
 20
-14.499
 30
0.0
 10
26.1637
 20
-14.499
 30
0.0
 10
26.1637
 20
-14.499
 30
0.0
 10
26.1637
 20
-15.2081
 30
0.0
 10
26.1637
 20
-15.2081
 30
0.0
  0
SPLINE
  5
18C
330
1F
100
AcDbEntity
  8
Ilustrace
 62
   250
370
    30
100
AcDbSpline
210
0.0
220
0.0
230
1.0
 70
    24
 71
     3
 72
     8
 73
     4
 74
     0
 42
0.0000000001
 43
0.0000000001
 40
0.0
 40
0.0
 40
0.0
 40
0.0
 40
1.0
 40
1.0
 40
1.0
 40
1.0
 10
28.6406
 20
-23.4179
 30
0.0
 10
28.6406
 20
-23.4179
 30
0.0
 10
27.9371
 20
-23.4179
 30
0.0
 10
27.9371
 20
-23.4179
 30
0.0
  0
SPLINE
  5
18D
330
1F
100
AcDbEntity
  8
Ilustrace
 62
   250
370
    30
100
AcDbSpline
210
0.0
220
0.0
230
1.0
 70
     8
 71
     3
 72
    16
 73
    12
 74
     0
 42
0.0000000001
 43
0.0000000001
 40
0.0
 40
0.0
 40
0.0
 40
0.0
 40
0.25
 40
0.25
 40
0.25
 40
0.25
 40
0.5
 40
0.5
 40
0.5
 40
0.5
 40
1.0
 40
1.0
 40
1.0
 40
1.0
 10
27.9371
 20
-23.4179
 30
0.0
 10
27.396
 20
-23.4179
 30
0.0
 10
26.8261
 20
-23.5035
 30
0.0
 10
26.431
 20
-23.0598
 30
0.0
 10
26.431
 20
-23.0598
 30
0.0
 10
26.3741
 20
-22.9957
 30
0.0
 10
26.3249
 20
-22.925
 30
0.0
 10
26.2851
 20
-22.8491
 30
0.0
 10
26.2851
 20
-22.8491
 30
0.0
 10
26.2254
 20
-22.7357
 30
0.0
 10
26.1866
 20
-22.6116
 30
0.0
 10
26.1712
 20
-22.4845
 30
0.0
  0
SPLINE
  5
18E
330
1F
100
AcDbEntity
  8
Ilustrace
 62
   250
370
    30
100
AcDbSpline
210
0.0
220
0.0
230
1.0
 70
     8
 71
     3
 72
    20
 73
    16
 74
     0
 42
0.0000000001
 43
0.0000000001
 40
0.0
 40
0.0
 40
0.0
 40
0.0
 40
0.2
 40
0.2
 40
0.2
 40
0.2
 40
0.4
 40
0.4
 40
0.4
 40
0.4
 40
0.6
 40
0.6
 40
0.6
 40
0.6
 40
1.0
 40
1.0
 40
1.0
 40
1.0
 10
26.1712
 20
-22.4845
 30
0.0
 10
26.1712
 20
-22.4845
 30
0.0
 10
26.1637
 20
-22.3573
 30
0.0
 10
26.1637
 20
-22.3573
 30
0.0
 10
26.1637
 20
-22.3573
 30
0.0
 10
26.1637
 20
-22.3573
 30
0.0
 10
26.1637
 20
-21.6483
 30
0.0
 10
26.1637
 20
-21.6483
 30
0.0
 10
26.1637
 20
-21.6483
 30
0.0
 10
26.1637
 20
-21.6483
 30
0.0
 10
26.1637
 20
-21.2347
 30
0.0
 10
26.1637
 20
-21.2347
 30
0.0
 10
26.1637
 20
-21.2347
 30
0.0
 10
26.1637
 20
-21.2347
 30
0.0
 10
26.1637
 20
-20.5257
 30
0.0
 10
26.1637
 20
-20.5257
 30
0.0
  0
SPLINE
  5
18F
330
1F
100
AcDbEntity
  8
Ilustrace
 62
   250
370
    30
100
AcDbSpline
210
0.0
220
0.0
230
1.0
 70
    24
 71
     3
 72
     8
 73
     4
 74
     0
 42
0.0000000001
 43
0.0000000001
 40
0.0
 40
0.0
 40
0.0
 40
0.0
 40
1.0
 40
1.0
 40
1.0
 40
1.0
 10
27.2012
 20
-15.9171
 30
0.0
 10
27.2012
 20
-15.9171
 30
0.0
 10
27.2012
 20
-19.8169
 30
0.0
 10
27.2012
 20
-19.8169
 30
0.0
  0
SPLINE
  5
190
330
1F
100
AcDbEntity
  8
Ilustrace
 62
   250
370
    30
100
AcDbSpline
210
0.0
220
0.0
230
1.0
 70
     8
 71
     3
 72
    12
 73
     8
 74
     0
 42
0.0000000001
 43
0.0000000001
 40
0.0
 40
0.0
 40
0.0
 40
0.0
 40
0.3333333333333333
 40
0.3333333333333333
 40
0.3333333333333333
 40
0.3333333333333333
 40
1.0
 40
1.0
 40
1.0
 40
1.0
 10
28.6406
 20
-13.6172
 30
0.0
 10
28.0508
 20
-13.7119
 30
0.0
 10
27.4102
 20
-13.9738
 30
0.0
 10
27.2409
 20
-14.6072
 30
0.0
 10
27.2409
 20
-14.6072
 30
0.0
 10
27.1883
 20
-14.8038
 30
0.0
 10
27.2012
 20
-15.0071
 30
0.0
 10
27.2012
 20
-15.2081
 30
0.0
  0
SPLINE
  5
191
330
1F
100
AcDbEntity
  8
Ilustrace
 62
   250
370
    30
100
AcDbSpline
210
0.0
220
0.0
230
1.0
 70
     8
 71
     3
 72
    12
 73
     8
 74
     0
 42
0.0000000001
 43
0.0000000001
 40
0.0
 40
0.0
 40
0.0
 40
0.0
 40
0.3333333333333333
 40
0.3333333333333333
 40
0.3333333333333333
 40
0.3333333333333333
 40
1.0
 40
1.0
 40
1.0
 40
1.0
 10
27.2012
 20
-20.5257
 30
0.0
 10
27.2012
 20
-20.7254
 30
0.0
 10
27.1883
 20
-20.9272
 30
0.0
 10
27.2396
 20
-21.1225
 30
0.0
 10
27.2396
 20
-21.1225
 30
0.0
 10
27.4075
 20
-21.7592
 30
0.0
 10
28.049
 20
-22.0209
 30
0.0
 10
28.6406
 20
-22.1166
 30
0.0
  0
SPLINE
  5
192
330
1F
100
AcDbEntity
  8
Ilustrace
 62
   250
370
    30
100
AcDbSpline
210
0.0
220
0.0
230
1.0
 70
    24
 71
     3
 72
     8
 73
     4
 74
     0
 42
0.0000000001
 43
0.0000000001
 40
0.0
 40
0.0
 40
0.0
 40
0.0
 40
1.0
 40
1.0
 40
1.0
 40
1.0
 10
34.4901
 20
-14.6901
 30
0.0
 10
34.4901
 20
-14.6901
 30
0.0
 10
34.1089
 20
-14.2873
 30
0.0
 10
34.1089
 20
-14.2873
 30
0.0
  0
SPLINE
  5
193
330
1F
100
AcDbEntity
  8
Ilustrace
 62
   250
370
    30
100
AcDbSpline
210
0.0
220
0.0
230
1.0
 70
     8
 71
     3
 72
    16
 73
    12
 74
     0
 42
0.0000000001
 43
0.0000000001
 40
0.0
 40
0.0
 40
0.0
 40
0.0
 40
0.25
 40
0.25
 40
0.25
 40
0.25
 40
0.5
 40
0.5
 40
0.5
 40
0.5
 40
1.0
 40
1.0
 40
1.0
 40
1.0
 10
34.1089
 20
-14.2873
 30
0.0
 10
34.0163
 20
-14.1924
 30
0.0
 10
33.9372
 20
-14.1226
 30
0.0
 10
33.8265
 20
-14.0504
 30
0.0
 10
33.8265
 20
-14.0504
 30
0.0
 10
33.4363
 20
-13.7964
 30
0.0
 10
32.9748
 20
-13.8253
 30
0.0
 10
32.5254
 20
-13.7915
 30
0.0
 10
32.5254
 20
-13.7915
 30
0.0
 10
31.4963
 20
-13.7143
 30
0.0
 10
30.4625
 20
-13.6194
 30
0.0
 10
29.4304
 20
-13.5697
 30
0.0
  0
SPLINE
  5
194
330
1F
100
AcDbEntity
  8
Ilustrace
 62
   250
370
    30
100
AcDbSpline
210
0.0
220
0.0
230
1.0
 70
    24
 71
     3
 72
     8
 73
     4
 74
     0
 42
0.0000000001
 43
0.0000000001
 40
0.0
 40
0.0
 40
0.0
 40
0.0
 40
1.0
 40
1.0
 40
1.0
 40
1.0
 10
29.4304
 20
-13.5697
 30
0.0
 10
29.4304
 20
-13.5697
 30
0.0
 10
29.1725
 20
-13.5727
 30
0.0
 10
29.1725
 20
-13.5727
 30
0.0
  0
SPLINE
  5
195
330
1F
100
AcDbEntity
  8
Ilustrace
 62
   250
370
    30
100
AcDbSpline
210
0.0
220
0.0
230
1.0
 70
    24
 71
     3
 72
     8
 73
     4
 74
     0
 42
0.0000000001
 43
0.0000000001
 40
0.0
 40
0.0
 40
0.0
 40
0.0
 40
1.0
 40
1.0
 40
1.0
 40
1.0
 10
34.4901
 20
-21.0437
 30
0.0
 10
34.4901
 20
-21.0437
 30
0.0
 10
34.1089
 20
-21.4466
 30
0.0
 10
34.1089
 20
-21.4466
 30
0.0
  0
SPLINE
  5
196
330
1F
100
AcDbEntity
  8
Ilustrace
 62
   250
370
    30
100
AcDbSpline
210
0.0
220
0.0
230
1.0
 70
     8
 71
     3
 72
    16
 73
    12
 74
     0
 42
0.0000000001
 43
0.0000000001
 40
0.0
 40
0.0
 40
0.0
 40
0.0
 40
0.25
 40
0.25
 40
0.25
 40
0.25
 40
0.5
 40
0.5
 40
0.5
 40
0.5
 40
1.0
 40
1.0
 40
1.0
 40
1.0
 10
34.1089
 20
-21.4466
 30
0.0
 10
34.0162
 20
-21.5418
 30
0.0
 10
33.9369
 20
-21.6114
 30
0.0
 10
33.8256
 20
-21.6838
 30
0.0
 10
33.8256
 20
-21.6838
 30
0.0
 10
33.4358
 20
-21.9375
 30
0.0
 10
32.9743
 20
-21.9087
 30
0.0
 10
32.5254
 20
-21.9423
 30
0.0
 10
32.5254
 20
-21.9423
 30
0.0
 10
31.4946
 20
-22.0198
 30
0.0
 10
30.4589
 20
-22.1149
 30
0.0
 10
29.425
 20
-22.1642
 30
0.0
  0
SPLINE
  5
197
330
1F
100
AcDbEntity
  8
Ilustrace
 62
   250
370
    30
100
AcDbSpline
210
0.0
220
0.0
230
1.0
 70
    24
 71
     3
 72
     8
 73
     4
 74
     0
 42
0.0000000001
 43
0.0000000001
 40
0.0
 40
0.0
 40
0.0
 40
0.0
 40
1.0
 40
1.0
 40
1.0
 40
1.0
 10
29.425
 20
-22.1642
 30
0.0
 10
29.425
 20
-22.1642
 30
0.0
 10
29.1725
 20
-22.1612
 30
0.0
 10
29.1725
 20
-22.1612
 30
0.0
  0
SPLINE
  5
198
330
1F
100
AcDbEntity
  8
Ilustrace
 62
   250
370
    30
100
AcDbSpline
210
0.0
220
0.0
230
1.0
 70
     8
 71
     3
 72
    12
 73
     8
 74
     0
 42
0.0000000001
 43
0.0000000001
 40
0.0
 40
0.0
 40
0.0
 40
0.0
 40
0.3333333333333333
 40
0.3333333333333333
 40
0.3333333333333333
 40
0.3333333333333333
 40
1.0
 40
1.0
 40
1.0
 40
1.0
 10
35.6508
 20
-19.8169
 30
0.0
 10
35.9009
 20
-19.5523
 30
0.0
 10
36.1559
 20
-19.2899
 30
0.0
 10
36.2896
 20
-18.9442
 30
0.0
 10
36.2896
 20
-18.9442
 30
0.0
 10
36.4211
 20
-18.6041
 30
0.0
 10
36.3746
 20
-18.2193
 30
0.0
 10
36.3746
 20
-17.867
 30
0.0
  0
SPLINE
  5
199
330
1F
100
AcDbEntity
  8
Ilustrace
 62
   250
370
    30
100
AcDbSpline
210
0.0
220
0.0
230
1.0
 70
     8
 71
     3
 72
    12
 73
     8
 74
     0
 42
0.0000000001
 43
0.0000000001
 40
0.0
 40
0.0
 40
0.0
 40
0.0
 40
0.3333333333333333
 40
0.3333333333333333
 40
0.3333333333333333
 40
0.3333333333333333
 40
1.0
 40
1.0
 40
1.0
 40
1.0
 10
36.3746
 20
-17.867
 30
0.0
 10
36.3746
 20
-17.867
 30
0.0
 10
36.3746
 20
-17.2284
 30
0.0
 10
36.3746
 20
-17.2284
 30
0.0
 10
36.3746
 20
-17.2284
 30
0.0
 10
36.3746
 20
-17.2284
 30
0.0
 10
36.3657
 20
-17.0881
 30
0.0
 10
36.3657
 20
-17.0881
 30
0.0
  0
SPLINE
  5
19A
330
1F
100
AcDbEntity
  8
Ilustrace
 62
   250
370
    30
100
AcDbSpline
210
0.0
220
0.0
230
1.0
 70
     8
 71
     3
 72
     8
 73
     4
 74
     0
 42
0.0000000001
 43
0.0000000001
 40
0.0
 40
0.0
 40
0.0
 40
0.0
 40
1.0
 40
1.0
 40
1.0
 40
1.0
 10
36.3657
 20
-17.0881
 30
0.0
 10
36.3047
 20
-16.6076
 30
0.0
 10
35.9689
 20
-16.2534
 30
0.0
 10
35.6508
 20
-15.9171
 30
0.0
  0
SPLINE
  5
19B
330
1F
100
AcDbEntity
  8
Ilustrace
 62
   250
370
    30
100
AcDbSpline
210
0.0
220
0.0
230
1.0
 70
    24
 71
     3
 72
     8
 73
     4
 74
     0
 42
0.0000000001
 43
0.0000000001
 40
0.0
 40
0.0
 40
0.0
 40
0.0
 40
1.0
 40
1.0
 40
1.0
 40
1.0
 10
28.6406
 20
-15.2081
 30
0.0
 10
28.6406
 20
-15.2081
 30
0.0
 10
22.5254
 20
-15.2081
 30
0.0
 10
22.5254
 20
-15.2081
 30
0.0
  0
SPLINE
  5
19C
330
1F
100
AcDbEntity
  8
Ilustrace
 62
   250
370
    30
100
AcDbSpline
210
0.0
220
0.0
230
1.0
 70
    24
 71
     3
 72
     8
 73
     4
 74
     0
 42
0.0000000001
 43
0.0000000001
 40
0.0
 40
0.0
 40
0.0
 40
0.0
 40
1.0
 40
1.0
 40
1.0
 40
1.0
 10
22.5254
 20
-15.9171
 30
0.0
 10
22.5254
 20
-15.9171
 30
0.0
 10
22.5254
 20
-15.2081
 30
0.0
 10
22.5254
 20
-15.2081
 30
0.0
  0
SPLINE
  5
19D
330
1F
100
AcDbEntity
  8
Ilustrace
 62
   250
370
    30
100
AcDbSpline
210
0.0
220
0.0
230
1.0
 70
    24
 71
     3
 72
     8
 73
     4
 74
     0
 42
0.0000000001
 43
0.0000000001
 40
0.0
 40
0.0
 40
0.0
 40
0.0
 40
1.0
 40
1.0
 40
1.0
 40
1.0
 10
28.6406
 20
-15.9171
 30
0.0
 10
28.6406
 20
-15.9171
 30
0.0
 10
22.5254
 20
-15.9171
 30
0.0
 10
22.5254
 20
-15.9171
 30
0.0
  0
SPLINE
  5
19E
330
1F
100
AcDbEntity
  8
Ilustrace
 62
   250
370
    30
100
AcDbSpline
210
0.0
220
0.0
230
1.0
 70
    24
 71
     3
 72
     8
 73
     4
 74
     0
 42
0.0000000001
 43
0.0000000001
 40
0.0
 40
0.0
 40
0.0
 40
0.0
 40
1.0
 40
1.0
 40
1.0
 40
1.0
 10
28.6406
 20
-19.8169
 30
0.0
 10
28.6406
 20
-19.8169
 30
0.0
 10
28.6406
 20
-15.9171
 30
0.0
 10
28.6406
 20
-15.9171
 30
0.0
  0
SPLINE
  5
19F
330
1F
100
AcDbEntity
  8
Ilustrace
 62
   250
370
    30
100
AcDbSpline
210
0.0
220
0.0
230
1.0
 70
    24
 71
     3
 72
     8
 73
     4
 74
     0
 42
0.0000000001
 43
0.0000000001
 40
0.0
 40
0.0
 40
0.0
 40
0.0
 40
1.0
 40
1.0
 40
1.0
 40
1.0
 10
22.5254
 20
-19.8169
 30
0.0
 10
22.5254
 20
-19.8169
 30
0.0
 10
28.6406
 20
-19.8169
 30
0.0
 10
28.6406
 20
-19.8169
 30
0.0
  0
SPLINE
  5
1A0
330
1F
100
AcDbEntity
  8
Ilustrace
 62
   250
370
    30
100
AcDbSpline
210
0.0
220
0.0
230
1.0
 70
    24
 71
     3
 72
     8
 73
     4
 74
     0
 42
0.0000000001
 43
0.0000000001
 40
0.0
 40
0.0
 40
0.0
 40
0.0
 40
1.0
 40
1.0
 40
1.0
 40
1.0
 10
22.5254
 20
-20.5257
 30
0.0
 10
22.5254
 20
-20.5257
 30
0.0
 10
22.5254
 20
-19.8169
 30
0.0
 10
22.5254
 20
-19.8169
 30
0.0
  0
SPLINE
  5
1A1
330
1F
100
AcDbEntity
  8
Ilustrace
 62
   250
370
    30
100
AcDbSpline
210
0.0
220
0.0
230
1.0
 70
    24
 71
     3
 72
     8
 73
     4
 74
     0
 42
0.0000000001
 43
0.0000000001
 40
0.0
 40
0.0
 40
0.0
 40
0.0
 40
1.0
 40
1.0
 40
1.0
 40
1.0
 10
28.6406
 20
-20.5257
 30
0.0
 10
28.6406
 20
-20.5257
 30
0.0
 10
22.5254
 20
-20.5257
 30
0.0
 10
22.5254
 20
-20.5257
 30
0.0
  0
SPLINE
  5
1A2
330
1F
100
AcDbEntity
  8
Ilustrace
 62
   250
370
    30
100
AcDbSpline
210
0.0
220
0.0
230
1.0
 70
    24
 71
     3
 72
     8
 73
     4
 74
     0
 42
0.0000000001
 43
0.0000000001
 40
0.0
 40
0.0
 40
0.0
 40
0.0
 40
1.0
 40
1.0
 40
1.0
 40
1.0
 10
28.6406
 20
-23.8226
 30
0.0
 10
28.6406
 20
-23.8226
 30
0.0
 10
28.6406
 20
-20.5257
 30
0.0
 10
28.6406
 20
-20.5257
 30
0.0
  0
SPLINE
  5
1A3
330
1F
100
AcDbEntity
  8
Ilustrace
 62
   250
370
    30
100
AcDbSpline
210
0.0
220
0.0
230
1.0
 70
    24
 71
     3
 72
     8
 73
     4
 74
     0
 42
0.0000000001
 43
0.0000000001
 40
0.0
 40
0.0
 40
0.0
 40
0.0
 40
1.0
 40
1.0
 40
1.0
 40
1.0
 10
29.1725
 20
-23.8226
 30
0.0
 10
29.1725
 20
-23.8226
 30
0.0
 10
28.6406
 20
-23.8226
 30
0.0
 10
28.6406
 20
-23.8226
 30
0.0
  0
SPLINE
  5
1A4
330
1F
100
AcDbEntity
  8
Ilustrace
 62
   250
370
    30
100
AcDbSpline
210
0.0
220
0.0
230
1.0
 70
    24
 71
     3
 72
     8
 73
     4
 74
     0
 42
0.0000000001
 43
0.0000000001
 40
0.0
 40
0.0
 40
0.0
 40
0.0
 40
1.0
 40
1.0
 40
1.0
 40
1.0
 10
29.1725
 20
-20.5257
 30
0.0
 10
29.1725
 20
-20.5257
 30
0.0
 10
29.1725
 20
-23.8226
 30
0.0
 10
29.1725
 20
-23.8226
 30
0.0
  0
SPLINE
  5
1A5
330
1F
100
AcDbEntity
  8
Ilustrace
 62
   250
370
    30
100
AcDbSpline
210
0.0
220
0.0
230
1.0
 70
    24
 71
     3
 72
     8
 73
     4
 74
     0
 42
0.0000000001
 43
0.0000000001
 40
0.0
 40
0.0
 40
0.0
 40
0.0
 40
1.0
 40
1.0
 40
1.0
 40
1.0
 10
34.4901
 20
-20.5257
 30
0.0
 10
34.4901
 20
-20.5257
 30
0.0
 10
29.1725
 20
-20.5257
 30
0.0
 10
29.1725
 20
-20.5257
 30
0.0
  0
SPLINE
  5
1A6
330
1F
100
AcDbEntity
  8
Ilustrace
 62
   250
370
    30
100
AcDbSpline
210
0.0
220
0.0
230
1.0
 70
    24
 71
     3
 72
     8
 73
     4
 74
     0
 42
0.0000000001
 43
0.0000000001
 40
0.0
 40
0.0
 40
0.0
 40
0.0
 40
1.0
 40
1.0
 40
1.0
 40
1.0
 10
34.4901
 20
-23.8226
 30
0.0
 10
34.4901
 20
-23.8226
 30
0.0
 10
34.4901
 20
-20.5257
 30
0.0
 10
34.4901
 20
-20.5257
 30
0.0
  0
SPLINE
  5
1A7
330
1F
100
AcDbEntity
  8
Ilustrace
 62
   250
370
    30
100
AcDbSpline
210
0.0
220
0.0
230
1.0
 70
    24
 71
     3
 72
     8
 73
     4
 74
     0
 42
0.0000000001
 43
0.0000000001
 40
0.0
 40
0.0
 40
0.0
 40
0.0
 40
1.0
 40
1.0
 40
1.0
 40
1.0
 10
35.0218
 20
-23.8226
 30
0.0
 10
35.0218
 20
-23.8226
 30
0.0
 10
34.4901
 20
-23.8226
 30
0.0
 10
34.4901
 20
-23.8226
 30
0.0
  0
SPLINE
  5
1A8
330
1F
100
AcDbEntity
  8
Ilustrace
 62
   250
370
    30
100
AcDbSpline
210
0.0
220
0.0
230
1.0
 70
    24
 71
     3
 72
     8
 73
     4
 74
     0
 42
0.0000000001
 43
0.0000000001
 40
0.0
 40
0.0
 40
0.0
 40
0.0
 40
1.0
 40
1.0
 40
1.0
 40
1.0
 10
35.0218
 20
-20.5257
 30
0.0
 10
35.0218
 20
-20.5257
 30
0.0
 10
35.0218
 20
-23.8226
 30
0.0
 10
35.0218
 20
-23.8226
 30
0.0
  0
SPLINE
  5
1A9
330
1F
100
AcDbEntity
  8
Ilustrace
 62
   250
370
    30
100
AcDbSpline
210
0.0
220
0.0
230
1.0
 70
    24
 71
     3
 72
     8
 73
     4
 74
     0
 42
0.0000000001
 43
0.0000000001
 40
0.0
 40
0.0
 40
0.0
 40
0.0
 40
1.0
 40
1.0
 40
1.0
 40
1.0
 10
39.5419
 20
-20.5257
 30
0.0
 10
39.5419
 20
-20.5257
 30
0.0
 10
35.0218
 20
-20.5257
 30
0.0
 10
35.0218
 20
-20.5257
 30
0.0
  0
SPLINE
  5
1AA
330
1F
100
AcDbEntity
  8
Ilustrace
 62
   250
370
    30
100
AcDbSpline
210
0.0
220
0.0
230
1.0
 70
    24
 71
     3
 72
     8
 73
     4
 74
     0
 42
0.0000000001
 43
0.0000000001
 40
0.0
 40
0.0
 40
0.0
 40
0.0
 40
1.0
 40
1.0
 40
1.0
 40
1.0
 10
39.5419
 20
-19.8169
 30
0.0
 10
39.5419
 20
-19.8169
 30
0.0
 10
39.5419
 20
-20.5257
 30
0.0
 10
39.5419
 20
-20.5257
 30
0.0
  0
SPLINE
  5
1AB
330
1F
100
AcDbEntity
  8
Ilustrace
 62
   250
370
    30
100
AcDbSpline
210
0.0
220
0.0
230
1.0
 70
    24
 71
     3
 72
     8
 73
     4
 74
     0
 42
0.0000000001
 43
0.0000000001
 40
0.0
 40
0.0
 40
0.0
 40
0.0
 40
1.0
 40
1.0
 40
1.0
 40
1.0
 10
35.0218
 20
-19.8169
 30
0.0
 10
35.0218
 20
-19.8169
 30
0.0
 10
39.5419
 20
-19.8169
 30
0.0
 10
39.5419
 20
-19.8169
 30
0.0
  0
SPLINE
  5
1AC
330
1F
100
AcDbEntity
  8
Ilustrace
 62
   250
370
    30
100
AcDbSpline
210
0.0
220
0.0
230
1.0
 70
    24
 71
     3
 72
     8
 73
     4
 74
     0
 42
0.0000000001
 43
0.0000000001
 40
0.0
 40
0.0
 40
0.0
 40
0.0
 40
1.0
 40
1.0
 40
1.0
 40
1.0
 10
35.0218
 20
-15.9171
 30
0.0
 10
35.0218
 20
-15.9171
 30
0.0
 10
35.0218
 20
-19.8169
 30
0.0
 10
35.0218
 20
-19.8169
 30
0.0
  0
SPLINE
  5
1AD
330
1F
100
AcDbEntity
  8
Ilustrace
 62
   250
370
    30
100
AcDbSpline
210
0.0
220
0.0
230
1.0
 70
    24
 71
     3
 72
     8
 73
     4
 74
     0
 42
0.0000000001
 43
0.0000000001
 40
0.0
 40
0.0
 40
0.0
 40
0.0
 40
1.0
 40
1.0
 40
1.0
 40
1.0
 10
39.5419
 20
-15.9171
 30
0.0
 10
39.5419
 20
-15.9171
 30
0.0
 10
35.0218
 20
-15.9171
 30
0.0
 10
35.0218
 20
-15.9171
 30
0.0
  0
SPLINE
  5
1AE
330
1F
100
AcDbEntity
  8
Ilustrace
 62
   250
370
    30
100
AcDbSpline
210
0.0
220
0.0
230
1.0
 70
    24
 71
     3
 72
     8
 73
     4
 74
     0
 42
0.0000000001
 43
0.0000000001
 40
0.0
 40
0.0
 40
0.0
 40
0.0
 40
1.0
 40
1.0
 40
1.0
 40
1.0
 10
39.5419
 20
-15.2081
 30
0.0
 10
39.5419
 20
-15.2081
 30
0.0
 10
39.5419
 20
-15.9171
 30
0.0
 10
39.5419
 20
-15.9171
 30
0.0
  0
SPLINE
  5
1AF
330
1F
100
AcDbEntity
  8
Ilustrace
 62
   250
370
    30
100
AcDbSpline
210
0.0
220
0.0
230
1.0
 70
    24
 71
     3
 72
     8
 73
     4
 74
     0
 42
0.0000000001
 43
0.0000000001
 40
0.0
 40
0.0
 40
0.0
 40
0.0
 40
1.0
 40
1.0
 40
1.0
 40
1.0
 10
35.0218
 20
-15.2081
 30
0.0
 10
35.0218
 20
-15.2081
 30
0.0
 10
39.5419
 20
-15.2081
 30
0.0
 10
39.5419
 20
-15.2081
 30
0.0
  0
SPLINE
  5
1B0
330
1F
100
AcDbEntity
  8
Ilustrace
 62
   250
370
    30
100
AcDbSpline
210
0.0
220
0.0
230
1.0
 70
    24
 71
     3
 72
     8
 73
     4
 74
     0
 42
0.0000000001
 43
0.0000000001
 40
0.0
 40
0.0
 40
0.0
 40
0.0
 40
1.0
 40
1.0
 40
1.0
 40
1.0
 10
35.0218
 20
-11.9111
 30
0.0
 10
35.0218
 20
-11.9111
 30
0.0
 10
35.0218
 20
-15.2081
 30
0.0
 10
35.0218
 20
-15.2081
 30
0.0
  0
SPLINE
  5
1B1
330
1F
100
AcDbEntity
  8
Ilustrace
 62
   250
370
    30
100
AcDbSpline
210
0.0
220
0.0
230
1.0
 70
    24
 71
     3
 72
     8
 73
     4
 74
     0
 42
0.0000000001
 43
0.0000000001
 40
0.0
 40
0.0
 40
0.0
 40
0.0
 40
1.0
 40
1.0
 40
1.0
 40
1.0
 10
34.4901
 20
-11.9111
 30
0.0
 10
34.4901
 20
-11.9111
 30
0.0
 10
35.0218
 20
-11.9111
 30
0.0
 10
35.0218
 20
-11.9111
 30
0.0
  0
SPLINE
  5
1B2
330
1F
100
AcDbEntity
  8
Ilustrace
 62
   250
370
    30
100
AcDbSpline
210
0.0
220
0.0
230
1.0
 70
    24
 71
     3
 72
     8
 73
     4
 74
     0
 42
0.0000000001
 43
0.0000000001
 40
0.0
 40
0.0
 40
0.0
 40
0.0
 40
1.0
 40
1.0
 40
1.0
 40
1.0
 10
34.4901
 20
-15.2081
 30
0.0
 10
34.4901
 20
-15.2081
 30
0.0
 10
34.4901
 20
-11.9111
 30
0.0
 10
34.4901
 20
-11.9111
 30
0.0
  0
SPLINE
  5
1B3
330
1F
100
AcDbEntity
  8
Ilustrace
 62
   250
370
    30
100
AcDbSpline
210
0.0
220
0.0
230
1.0
 70
    24
 71
     3
 72
     8
 73
     4
 74
     0
 42
0.0000000001
 43
0.0000000001
 40
0.0
 40
0.0
 40
0.0
 40
0.0
 40
1.0
 40
1.0
 40
1.0
 40
1.0
 10
29.1725
 20
-15.2081
 30
0.0
 10
29.1725
 20
-15.2081
 30
0.0
 10
34.4901
 20
-15.2081
 30
0.0
 10
34.4901
 20
-15.2081
 30
0.0
  0
SPLINE
  5
1B4
330
1F
100
AcDbEntity
  8
Ilustrace
 62
   250
370
    30
100
AcDbSpline
210
0.0
220
0.0
230
1.0
 70
    24
 71
     3
 72
     8
 73
     4
 74
     0
 42
0.0000000001
 43
0.0000000001
 40
0.0
 40
0.0
 40
0.0
 40
0.0
 40
1.0
 40
1.0
 40
1.0
 40
1.0
 10
29.1725
 20
-11.9111
 30
0.0
 10
29.1725
 20
-11.9111
 30
0.0
 10
29.1725
 20
-15.2081
 30
0.0
 10
29.1725
 20
-15.2081
 30
0.0
  0
SPLINE
  5
1B5
330
1F
100
AcDbEntity
  8
Ilustrace
 62
   250
370
    30
100
AcDbSpline
210
0.0
220
0.0
230
1.0
 70
    24
 71
     3
 72
     8
 73
     4
 74
     0
 42
0.0000000001
 43
0.0000000001
 40
0.0
 40
0.0
 40
0.0
 40
0.0
 40
1.0
 40
1.0
 40
1.0
 40
1.0
 10
28.6406
 20
-11.9111
 30
0.0
 10
28.6406
 20
-11.9111
 30
0.0
 10
29.1725
 20
-11.9111
 30
0.0
 10
29.1725
 20
-11.9111
 30
0.0
  0
SPLINE
  5
1B6
330
1F
100
AcDbEntity
  8
Ilustrace
 62
   250
370
    30
100
AcDbSpline
210
0.0
220
0.0
230
1.0
 70
    24
 71
     3
 72
     8
 73
     4
 74
     0
 42
0.0000000001
 43
0.0000000001
 40
0.0
 40
0.0
 40
0.0
 40
0.0
 40
1.0
 40
1.0
 40
1.0
 40
1.0
 10
28.6406
 20
-15.2081
 30
0.0
 10
28.6406
 20
-15.2081
 30
0.0
 10
28.6406
 20
-11.9111
 30
0.0
 10
28.6406
 20
-11.9111
 30
0.0
  0
SPLINE
  5
1B7
330
1F
100
AcDbEntity
  8
Ilustrace
 62
   250
370
    30
100
AcDbSpline
210
0.0
220
0.0
230
1.0
 70
    24
 71
     3
 72
     8
 73
     4
 74
     0
 42
0.0000000001
 43
0.0000000001
 40
0.0
 40
0.0
 40
0.0
 40
0.0
 40
1.0
 40
1.0
 40
1.0
 40
1.0
 10
29.1725
 20
-19.8169
 30
0.0
 10
29.1725
 20
-19.8169
 30
0.0
 10
29.1725
 20
-15.9171
 30
0.0
 10
29.1725
 20
-15.9171
 30
0.0
  0
SPLINE
  5
1B8
330
1F
100
AcDbEntity
  8
Ilustrace
 62
   250
370
    30
100
AcDbSpline
210
0.0
220
0.0
230
1.0
 70
    24
 71
     3
 72
     8
 73
     4
 74
     0
 42
0.0000000001
 43
0.0000000001
 40
0.0
 40
0.0
 40
0.0
 40
0.0
 40
1.0
 40
1.0
 40
1.0
 40
1.0
 10
34.4901
 20
-15.9171
 30
0.0
 10
34.4901
 20
-15.9171
 30
0.0
 10
29.1725
 20
-15.9171
 30
0.0
 10
29.1725
 20
-15.9171
 30
0.0
  0
SPLINE
  5
1B9
330
1F
100
AcDbEntity
  8
Ilustrace
 62
   250
370
    30
100
AcDbSpline
210
0.0
220
0.0
230
1.0
 70
    24
 71
     3
 72
     8
 73
     4
 74
     0
 42
0.0000000001
 43
0.0000000001
 40
0.0
 40
0.0
 40
0.0
 40
0.0
 40
1.0
 40
1.0
 40
1.0
 40
1.0
 10
34.4901
 20
-15.9171
 30
0.0
 10
34.4901
 20
-15.9171
 30
0.0
 10
34.4901
 20
-19.8169
 30
0.0
 10
34.4901
 20
-19.8169
 30
0.0
  0
SPLINE
  5
1BA
330
1F
100
AcDbEntity
  8
Ilustrace
 62
   250
370
    30
100
AcDbSpline
210
0.0
220
0.0
230
1.0
 70
    24
 71
     3
 72
     8
 73
     4
 74
     0
 42
0.0000000001
 43
0.0000000001
 40
0.0
 40
0.0
 40
0.0
 40
0.0
 40
1.0
 40
1.0
 40
1.0
 40
1.0
 10
29.1725
 20
-19.8169
 30
0.0
 10
29.1725
 20
-19.8169
 30
0.0
 10
34.4901
 20
-19.8169
 30
0.0
 10
34.4901
 20
-19.8169
 30
0.0
  0
SPLINE
  5
1BB
330
1F
100
AcDbEntity
  8
Ilustrace
 62
   250
370
    30
100
AcDbSpline
210
0.0
220
0.0
230
1.0
 70
    24
 71
     3
 72
     8
 73
     4
 74
     0
 42
0.0000000001
 43
0.0000000001
 40
0.0
 40
0.0
 40
0.0
 40
0.0
 40
1.0
 40
1.0
 40
1.0
 40
1.0
 10
24.5574
 20
-17.2702
 30
0.0
 10
24.5574
 20
-17.2702
 30
0.0
 10
24.5574
 20
-18.557
 30
0.0
 10
24.5574
 20
-18.557
 30
0.0
  0
SPLINE
  5
1BC
330
1F
100
AcDbEntity
  8
Ilustrace
 62
   250
370
    30
100
AcDbSpline
210
0.0
220
0.0
230
1.0
 70
    24
 71
     3
 72
     8
 73
     4
 74
     0
 42
0.0000000001
 43
0.0000000001
 40
0.0
 40
0.0
 40
0.0
 40
0.0
 40
1.0
 40
1.0
 40
1.0
 40
1.0
 10
36.8301
 20
-23.4705
 30
0.0
 10
36.8301
 20
-23.4705
 30
0.0
 10
37.1194
 20
-23.3788
 30
0.0
 10
37.1194
 20
-23.3788
 30
0.0
  0
SPLINE
  5
1BD
330
1F
100
AcDbEntity
  8
Ilustrace
 62
   250
370
    30
100
AcDbSpline
210
0.0
220
0.0
230
1.0
 70
     8
 71
     3
 72
    28
 73
    24
 74
     0
 42
0.0000000001
 43
0.0000000001
 40
0.0
 40
0.0
 40
0.0
 40
0.0
 40
0.1428571428571428
 40
0.1428571428571428
 40
0.1428571428571428
 40
0.1428571428571428
 40
0.2857142857142857
 40
0.2857142857142857
 40
0.2857142857142857
 40
0.2857142857142857
 40
0.4285714285714285
 40
0.4285714285714285
 40
0.4285714285714285
 40
0.4285714285714285
 40
0.5714285714285714
 40
0.5714285714285714
 40
0.5714285714285714
 40
0.5714285714285714
 40
0.7142857142857143
 40
0.7142857142857143
 40
0.7142857142857143
 40
0.7142857142857143
 40
1.0
 40
1.0
 40
1.0
 40
1.0
 10
37.1194
 20
-23.3788
 30
0.0
 10
37.1194
 20
-23.3788
 30
0.0
 10
37.4237
 20
-23.2006
 30
0.0
 10
37.4383
 20
-23.1954
 30
0.0
 10
37.4383
 20
-23.1954
 30
0.0
 10
37.4526
 20
-23.1901
 30
0.0
 10
37.6837
 20
-22.9726
 30
0.0
 10
37.7087
 20
-22.9636
 30
0.0
 10
37.7087
 20
-22.9636
 30
0.0
 10
37.7338
 20
-22.9543
 30
0.0
 10
37.809
 20
-22.8316
 30
0.0
 10
37.819
 20
-22.828
 30
0.0
 10
37.819
 20
-22.828
 30
0.0
 10
37.8289
 20
-22.8244
 30
0.0
 10
37.8914
 20
-22.6811
 30
0.0
 10
37.8914
 20
-22.6811
 30
0.0
 10
37.8914
 20
-22.6811
 30
0.0
 10
37.8914
 20
-22.6811
 30
0.0
 10
37.8955
 20
-22.5674
 30
0.0
 10
37.8955
 20
-22.5515
 30
0.0
 10
37.8955
 20
-22.5515
 30
0.0
 10
37.8955
 20
-22.5352
 30
0.0
 10
37.859
 20
-22.2237
 30
0.0
 10
37.859
 20
-22.2237
 30
0.0
  0
SPLINE
  5
1BE
330
1F
100
AcDbEntity
  8
Ilustrace
 62
   250
370
     9
100
AcDbSpline
210
0.0
220
0.0
230
1.0
 70
    11
 71
     3
 72
    32
 73
    28
 74
     0
 42
0.0000000001
 43
0.0000000001
 40
0.0
 40
0.0
 40
0.0
 40
0.0
 40
0.125
 40
0.125
 40
0.125
 40
0.125
 40
0.25
 40
0.25
 40
0.25
 40
0.25
 40
0.375
 40
0.375
 40
0.375
 40
0.375
 40
0.5
 40
0.5
 40
0.5
 40
0.5
 40
0.625
 40
0.625
 40
0.625
 40
0.625
 40
0.75
 40
0.75
 40
0.75
 40
0.75
 40
1.0
 40
1.0
 40
1.0
 40
1.0
 10
-6.6548
 20
21.256
 30
0.0
 10
-6.6548
 20
21.256
 30
0.0
 10
-6.6548
 20
21.256
 30
0.0
 10
-6.6548
 20
21.256
 30
0.0
 10
-6.6548
 20
21.256
 30
0.0
 10
-6.6548
 20
21.256
 30
0.0
 10
-6.6548
 20
21.256
 30
0.0
 10
-6.6548
 20
21.256
 30
0.0
 10
-6.6548
 20
21.256
 30
0.0
 10
-6.6548
 20
21.256
 30
0.0
 10
-6.2114
 20
22.5288
 30
0.0
 10
-6.2114
 20
22.5288
 30
0.0
 10
-6.2114
 20
22.5288
 30
0.0
 10
-6.2114
 20
22.5288
 30
0.0
 10
-5.768
 20
21.256
 30
0.0
 10
-5.768
 20
21.256
 30
0.0
 10
-5.768
 20
21.256
 30
0.0
 10
-5.768
 20
21.256
 30
0.0
 10
-5.768
 20
21.256
 30
0.0
 10
-5.768
 20
21.256
 30
0.0
 10
-5.768
 20
21.256
 30
0.0
 10
-5.768
 20
21.256
 30
0.0
 10
-5.768
 20
21.256
 30
0.0
 10
-5.768
 20
21.256
 30
0.0
 10
-5.768
 20
21.256
 30
0.0
 10
-5.768
 20
21.256
 30
0.0
 10
-6.6548
 20
21.256
 30
0.0
 10
-6.6548
 20
21.256
 30
0.0
  0
SPLINE
  5
1BF
330
1F
100
AcDbEntity
  8
Ilustrace
 62
   250
370
     9
100
AcDbSpline
210
0.0
220
0.0
230
1.0
 70
    11
 71
     3
 72
    32
 73
    28
 74
     0
 42
0.0000000001
 43
0.0000000001
 40
0.0
 40
0.0
 40
0.0
 40
0.0
 40
0.125
 40
0.125
 40
0.125
 40
0.125
 40
0.25
 40
0.25
 40
0.25
 40
0.25
 40
0.375
 40
0.375
 40
0.375
 40
0.375
 40
0.5
 40
0.5
 40
0.5
 40
0.5
 40
0.625
 40
0.625
 40
0.625
 40
0.625
 40
0.75
 40
0.75
 40
0.75
 40
0.75
 40
1.0
 40
1.0
 40
1.0
 40
1.0
 10
-0.6355
 20
21.289
 30
0.0
 10
-0.6355
 20
21.289
 30
0.0
 10
-0.6355
 20
21.289
 30
0.0
 10
-0.6355
 20
21.289
 30
0.0
 10
-0.6355
 20
21.289
 30
0.0
 10
-0.6355
 20
21.289
 30
0.0
 10
-0.6355
 20
21.289
 30
0.0
 10
-0.6355
 20
21.289
 30
0.0
 10
-0.6355
 20
21.289
 30
0.0
 10
-0.6355
 20
21.289
 30
0.0
 10
-0.1921
 20
22.5618
 30
0.0
 10
-0.1921
 20
22.5618
 30
0.0
 10
-0.1921
 20
22.5618
 30
0.0
 10
-0.1921
 20
22.5618
 30
0.0
 10
0.2513
 20
21.289
 30
0.0
 10
0.2513
 20
21.289
 30
0.0
 10
0.2513
 20
21.289
 30
0.0
 10
0.2513
 20
21.289
 30
0.0
 10
0.2513
 20
21.289
 30
0.0
 10
0.2513
 20
21.289
 30
0.0
 10
0.2513
 20
21.289
 30
0.0
 10
0.2513
 20
21.289
 30
0.0
 10
0.2513
 20
21.289
 30
0.0
 10
0.2513
 20
21.289
 30
0.0
 10
0.2513
 20
21.289
 30
0.0
 10
0.2513
 20
21.289
 30
0.0
 10
-0.6355
 20
21.289
 30
0.0
 10
-0.6355
 20
21.289
 30
0.0
  0
SPLINE
  5
1C0
330
1F
100
AcDbEntity
  8
Ilustrace
 62
   250
370
     9
100
AcDbSpline
210
0.0
220
0.0
230
1.0
 70
    11
 71
     3
 72
    32
 73
    28
 74
     0
 42
0.0000000001
 43
0.0000000001
 40
0.0
 40
0.0
 40
0.0
 40
0.0
 40
0.125
 40
0.125
 40
0.125
 40
0.125
 40
0.25
 40
0.25
 40
0.25
 40
0.25
 40
0.375
 40
0.375
 40
0.375
 40
0.375
 40
0.5
 40
0.5
 40
0.5
 40
0.5
 40
0.625
 40
0.625
 40
0.625
 40
0.625
 40
0.75
 40
0.75
 40
0.75
 40
0.75
 40
1.0
 40
1.0
 40
1.0
 40
1.0
 10
3.3553
 20
21.3551
 30
0.0
 10
3.3553
 20
21.3551
 30
0.0
 10
3.3553
 20
21.3551
 30
0.0
 10
3.3553
 20
21.3551
 30
0.0
 10
3.3553
 20
21.3551
 30
0.0
 10
3.3553
 20
21.3551
 30
0.0
 10
3.3553
 20
21.3551
 30
0.0
 10
3.3553
 20
21.3551
 30
0.0
 10
3.3553
 20
21.3551
 30
0.0
 10
3.3553
 20
21.3551
 30
0.0
 10
3.7987
 20
22.6279
 30
0.0
 10
3.7987
 20
22.6279
 30
0.0
 10
3.7987
 20
22.6279
 30
0.0
 10
3.7987
 20
22.6279
 30
0.0
 10
4.2421
 20
21.3551
 30
0.0
 10
4.2421
 20
21.3551
 30
0.0
 10
4.2421
 20
21.3551
 30
0.0
 10
4.2421
 20
21.3551
 30
0.0
 10
4.2421
 20
21.3551
 30
0.0
 10
4.2421
 20
21.3551
 30
0.0
 10
4.2421
 20
21.3551
 30
0.0
 10
4.2421
 20
21.3551
 30
0.0
 10
4.2421
 20
21.3551
 30
0.0
 10
4.2421
 20
21.3551
 30
0.0
 10
4.2421
 20
21.3551
 30
0.0
 10
4.2421
 20
21.3551
 30
0.0
 10
3.3553
 20
21.3551
 30
0.0
 10
3.3553
 20
21.3551
 30
0.0
  0
SPLINE
  5
1C1
330
1F
100
AcDbEntity
  8
Ilustrace
 62
   250
370
     9
100
AcDbSpline
210
0.0
220
0.0
230
1.0
 70
    11
 71
     3
 72
    32
 73
    28
 74
     0
 42
0.0000000001
 43
0.0000000001
 40
0.0
 40
0.0
 40
0.0
 40
0.0
 40
0.125
 40
0.125
 40
0.125
 40
0.125
 40
0.25
 40
0.25
 40
0.25
 40
0.25
 40
0.375
 40
0.375
 40
0.375
 40
0.375
 40
0.5
 40
0.5
 40
0.5
 40
0.5
 40
0.625
 40
0.625
 40
0.625
 40
0.625
 40
0.75
 40
0.75
 40
0.75
 40
0.75
 40
1.0
 40
1.0
 40
1.0
 40
1.0
 10
3.3553
 20
-11.806
 30
0.0
 10
3.3553
 20
-11.806
 30
0.0
 10
3.3553
 20
-11.806
 30
0.0
 10
3.3553
 20
-11.806
 30
0.0
 10
3.3553
 20
-11.806
 30
0.0
 10
3.3553
 20
-11.806
 30
0.0
 10
3.3553
 20
-11.806
 30
0.0
 10
3.3553
 20
-11.806
 30
0.0
 10
3.3553
 20
-11.806
 30
0.0
 10
3.3553
 20
-11.806
 30
0.0
 10
3.7987
 20
-10.5332
 30
0.0
 10
3.7987
 20
-10.5332
 30
0.0
 10
3.7987
 20
-10.5332
 30
0.0
 10
3.7987
 20
-10.5332
 30
0.0
 10
4.2421
 20
-11.806
 30
0.0
 10
4.2421
 20
-11.806
 30
0.0
 10
4.2421
 20
-11.806
 30
0.0
 10
4.2421
 20
-11.806
 30
0.0
 10
4.2421
 20
-11.806
 30
0.0
 10
4.2421
 20
-11.806
 30
0.0
 10
4.2421
 20
-11.806
 30
0.0
 10
4.2421
 20
-11.806
 30
0.0
 10
4.2421
 20
-11.806
 30
0.0
 10
4.2421
 20
-11.806
 30
0.0
 10
4.2421
 20
-11.806
 30
0.0
 10
4.2421
 20
-11.806
 30
0.0
 10
3.3553
 20
-11.806
 30
0.0
 10
3.3553
 20
-11.806
 30
0.0
  0
SPLINE
  5
1C2
330
1F
100
AcDbEntity
  8
Ilustrace
 62
   250
370
     9
100
AcDbSpline
210
0.0
220
0.0
230
1.0
 70
    11
 71
     3
 72
    32
 73
    28
 74
     0
 42
0.0000000001
 43
0.0000000001
 40
0.0
 40
0.0
 40
0.0
 40
0.0
 40
0.125
 40
0.125
 40
0.125
 40
0.125
 40
0.25
 40
0.25
 40
0.25
 40
0.25
 40
0.375
 40
0.375
 40
0.375
 40
0.375
 40
0.5
 40
0.5
 40
0.5
 40
0.5
 40
0.625
 40
0.625
 40
0.625
 40
0.625
 40
0.75
 40
0.75
 40
0.75
 40
0.75
 40
1.0
 40
1.0
 40
1.0
 40
1.0
 10
41.6722
 20
-5.8675
 30
0.0
 10
41.6722
 20
-5.8675
 30
0.0
 10
41.6722
 20
-5.8675
 30
0.0
 10
41.6722
 20
-5.8675
 30
0.0
 10
41.6722
 20
-5.8675
 30
0.0
 10
41.6722
 20
-5.8675
 30
0.0
 10
41.6722
 20
-5.8675
 30
0.0
 10
41.6722
 20
-5.8675
 30
0.0
 10
41.6722
 20
-5.8675
 30
0.0
 10
41.6722
 20
-5.8675
 30
0.0
 10
42.945
 20
-6.3109
 30
0.0
 10
42.945
 20
-6.3109
 30
0.0
 10
42.945
 20
-6.3109
 30
0.0
 10
42.945
 20
-6.3109
 30
0.0
 10
41.6722
 20
-6.7543
 30
0.0
 10
41.6722
 20
-6.7543
 30
0.0
 10
41.6722
 20
-6.7543
 30
0.0
 10
41.6722
 20
-6.7543
 30
0.0
 10
41.6722
 20
-6.7543
 30
0.0
 10
41.6722
 20
-6.7543
 30
0.0
 10
41.6722
 20
-6.7543
 30
0.0
 10
41.6722
 20
-6.7543
 30
0.0
 10
41.6722
 20
-6.7543
 30
0.0
 10
41.6722
 20
-6.7543
 30
0.0
 10
41.6722
 20
-6.7543
 30
0.0
 10
41.6722
 20
-6.7543
 30
0.0
 10
41.6722
 20
-5.8675
 30
0.0
 10
41.6722
 20
-5.8675
 30
0.0
  0
SPLINE
  5
1C3
330
1F
100
AcDbEntity
  8
Ilustrace
 62
   250
370
     9
100
AcDbSpline
210
0.0
220
0.0
230
1.0
 70
    11
 71
     3
 72
    32
 73
    28
 74
     0
 42
0.0000000001
 43
0.0000000001
 40
0.0
 40
0.0
 40
0.0
 40
0.0
 40
0.125
 40
0.125
 40
0.125
 40
0.125
 40
0.25
 40
0.25
 40
0.25
 40
0.25
 40
0.375
 40
0.375
 40
0.375
 40
0.375
 40
0.5
 40
0.5
 40
0.5
 40
0.5
 40
0.625
 40
0.625
 40
0.625
 40
0.625
 40
0.75
 40
0.75
 40
0.75
 40
0.75
 40
1.0
 40
1.0
 40
1.0
 40
1.0
 10
-6.6115
 20
-2.9643
 30
0.0
 10
-6.6115
 20
-2.9643
 30
0.0
 10
-6.6115
 20
-2.9643
 30
0.0
 10
-6.6115
 20
-2.9643
 30
0.0
 10
-6.6115
 20
-2.9643
 30
0.0
 10
-6.6115
 20
-2.9643
 30
0.0
 10
-6.6115
 20
-2.9643
 30
0.0
 10
-6.6115
 20
-2.9643
 30
0.0
 10
-6.6115
 20
-2.9643
 30
0.0
 10
-6.6115
 20
-2.9643
 30
0.0
 10
-6.1681
 20
-4.2371
 30
0.0
 10
-6.1681
 20
-4.2371
 30
0.0
 10
-6.1681
 20
-4.2371
 30
0.0
 10
-6.1681
 20
-4.2371
 30
0.0
 10
-5.7247
 20
-2.9643
 30
0.0
 10
-5.7247
 20
-2.9643
 30
0.0
 10
-5.7247
 20
-2.9643
 30
0.0
 10
-5.7247
 20
-2.9643
 30
0.0
 10
-5.7247
 20
-2.9643
 30
0.0
 10
-5.7247
 20
-2.9643
 30
0.0
 10
-5.7247
 20
-2.9643
 30
0.0
 10
-5.7247
 20
-2.9643
 30
0.0
 10
-5.7247
 20
-2.9643
 30
0.0
 10
-5.7247
 20
-2.9643
 30
0.0
 10
-5.7247
 20
-2.9643
 30
0.0
 10
-5.7247
 20
-2.9643
 30
0.0
 10
-6.6115
 20
-2.9643
 30
0.0
 10
-6.6115
 20
-2.9643
 30
0.0
  0
SPLINE
  5
1C4
330
1F
100
AcDbEntity
  8
Ilustrace
 62
   250
370
     9
100
AcDbSpline
210
0.0
220
0.0
230
1.0
 70
    11
 71
     3
 72
    32
 73
    28
 74
     0
 42
0.0000000001
 43
0.0000000001
 40
0.0
 40
0.0
 40
0.0
 40
0.0
 40
0.125
 40
0.125
 40
0.125
 40
0.125
 40
0.25
 40
0.25
 40
0.25
 40
0.25
 40
0.375
 40
0.375
 40
0.375
 40
0.375
 40
0.5
 40
0.5
 40
0.5
 40
0.5
 40
0.625
 40
0.625
 40
0.625
 40
0.625
 40
0.75
 40
0.75
 40
0.75
 40
0.75
 40
1.0
 40
1.0
 40
1.0
 40
1.0
 10
-0.6363
 20
0.2658
 30
0.0
 10
-0.6363
 20
0.2658
 30
0.0
 10
-0.6363
 20
0.2658
 30
0.0
 10
-0.6363
 20
0.2658
 30
0.0
 10
-0.6363
 20
0.2658
 30
0.0
 10
-0.6363
 20
0.2658
 30
0.0
 10
-0.6363
 20
0.2658
 30
0.0
 10
-0.6363
 20
0.2658
 30
0.0
 10
-0.6363
 20
0.2658
 30
0.0
 10
-0.6363
 20
0.2658
 30
0.0
 10
-0.1929
 20
-1.007
 30
0.0
 10
-0.1929
 20
-1.007
 30
0.0
 10
-0.1929
 20
-1.007
 30
0.0
 10
-0.1929
 20
-1.007
 30
0.0
 10
0.2505
 20
0.2658
 30
0.0
 10
0.2505
 20
0.2658
 30
0.0
 10
0.2505
 20
0.2658
 30
0.0
 10
0.2505
 20
0.2658
 30
0.0
 10
0.2505
 20
0.2658
 30
0.0
 10
0.2505
 20
0.2658
 30
0.0
 10
0.2505
 20
0.2658
 30
0.0
 10
0.2505
 20
0.2658
 30
0.0
 10
0.2505
 20
0.2658
 30
0.0
 10
0.2505
 20
0.2658
 30
0.0
 10
0.2505
 20
0.2658
 30
0.0
 10
0.2505
 20
0.2658
 30
0.0
 10
-0.6363
 20
0.2658
 30
0.0
 10
-0.6363
 20
0.2658
 30
0.0
  0
SPLINE
  5
1C5
330
1F
100
AcDbEntity
  8
Ilustrace
 62
   250
370
     9
100
AcDbSpline
210
0.0
220
0.0
230
1.0
 70
    11
 71
     3
 72
    32
 73
    28
 74
     0
 42
0.0000000001
 43
0.0000000001
 40
0.0
 40
0.0
 40
0.0
 40
0.0
 40
0.125
 40
0.125
 40
0.125
 40
0.125
 40
0.25
 40
0.25
 40
0.25
 40
0.25
 40
0.375
 40
0.375
 40
0.375
 40
0.375
 40
0.5
 40
0.5
 40
0.5
 40
0.5
 40
0.625
 40
0.625
 40
0.625
 40
0.625
 40
0.75
 40
0.75
 40
0.75
 40
0.75
 40
1.0
 40
1.0
 40
1.0
 40
1.0
 10
3.3765
 20
2.5588
 30
0.0
 10
3.3765
 20
2.5588
 30
0.0
 10
3.3765
 20
2.5588
 30
0.0
 10
3.3765
 20
2.5588
 30
0.0
 10
3.3765
 20
2.5588
 30
0.0
 10
3.3765
 20
2.5588
 30
0.0
 10
3.3765
 20
2.5588
 30
0.0
 10
3.3765
 20
2.5588
 30
0.0
 10
3.3765
 20
2.5588
 30
0.0
 10
3.3765
 20
2.5588
 30
0.0
 10
3.8199
 20
1.286
 30
0.0
 10
3.8199
 20
1.286
 30
0.0
 10
3.8199
 20
1.286
 30
0.0
 10
3.8199
 20
1.286
 30
0.0
 10
4.2633
 20
2.5588
 30
0.0
 10
4.2633
 20
2.5588
 30
0.0
 10
4.2633
 20
2.5588
 30
0.0
 10
4.2633
 20
2.5588
 30
0.0
 10
4.2633
 20
2.5588
 30
0.0
 10
4.2633
 20
2.5588
 30
0.0
 10
4.2633
 20
2.5588
 30
0.0
 10
4.2633
 20
2.5588
 30
0.0
 10
4.2633
 20
2.5588
 30
0.0
 10
4.2633
 20
2.5588
 30
0.0
 10
4.2633
 20
2.5588
 30
0.0
 10
4.2633
 20
2.5588
 30
0.0
 10
3.3765
 20
2.5588
 30
0.0
 10
3.3765
 20
2.5588
 30
0.0
  0
SPLINE
  5
1C6
330
1F
100
AcDbEntity
  8
Ilustrace
 62
   250
370
     9
100
AcDbSpline
210
0.0
220
0.0
230
1.0
 70
    11
 71
     3
 72
    32
 73
    28
 74
     0
 42
0.0000000001
 43
0.0000000001
 40
0.0
 40
0.0
 40
0.0
 40
0.0
 40
0.125
 40
0.125
 40
0.125
 40
0.125
 40
0.25
 40
0.25
 40
0.25
 40
0.25
 40
0.375
 40
0.375
 40
0.375
 40
0.375
 40
0.5
 40
0.5
 40
0.5
 40
0.5
 40
0.625
 40
0.625
 40
0.625
 40
0.625
 40
0.75
 40
0.75
 40
0.75
 40
0.75
 40
1.0
 40
1.0
 40
1.0
 40
1.0
 10
3.3765
 20
-24.0538
 30
0.0
 10
3.3765
 20
-24.0538
 30
0.0
 10
3.3765
 20
-24.0538
 30
0.0
 10
3.3765
 20
-24.0538
 30
0.0
 10
3.3765
 20
-24.0538
 30
0.0
 10
3.3765
 20
-24.0538
 30
0.0
 10
3.3765
 20
-24.0538
 30
0.0
 10
3.3765
 20
-24.0538
 30
0.0
 10
3.3765
 20
-24.0538
 30
0.0
 10
3.3765
 20
-24.0538
 30
0.0
 10
3.8199
 20
-25.3266
 30
0.0
 10
3.8199
 20
-25.3266
 30
0.0
 10
3.8199
 20
-25.3266
 30
0.0
 10
3.8199
 20
-25.3266
 30
0.0
 10
4.2633
 20
-24.0538
 30
0.0
 10
4.2633
 20
-24.0538
 30
0.0
 10
4.2633
 20
-24.0538
 30
0.0
 10
4.2633
 20
-24.0538
 30
0.0
 10
4.2633
 20
-24.0538
 30
0.0
 10
4.2633
 20
-24.0538
 30
0.0
 10
4.2633
 20
-24.0538
 30
0.0
 10
4.2633
 20
-24.0538
 30
0.0
 10
4.2633
 20
-24.0538
 30
0.0
 10
4.2633
 20
-24.0538
 30
0.0
 10
4.2633
 20
-24.0538
 30
0.0
 10
4.2633
 20
-24.0538
 30
0.0
 10
3.3765
 20
-24.0538
 30
0.0
 10
3.3765
 20
-24.0538
 30
0.0
  0
SPLINE
  5
1C7
330
1F
100
AcDbEntity
  8
Ilustrace
 62
   250
370
     9
100
AcDbSpline
210
0.0
220
0.0
230
1.0
 70
    11
 71
     3
 72
    32
 73
    28
 74
     0
 42
0.0000000001
 43
0.0000000001
 40
0.0
 40
0.0
 40
0.0
 40
0.0
 40
0.125
 40
0.125
 40
0.125
 40
0.125
 40
0.25
 40
0.25
 40
0.25
 40
0.25
 40
0.375
 40
0.375
 40
0.375
 40
0.375
 40
0.5
 40
0.5
 40
0.5
 40
0.5
 40
0.625
 40
0.625
 40
0.625
 40
0.625
 40
0.75
 40
0.75
 40
0.75
 40
0.75
 40
1.0
 40
1.0
 40
1.0
 40
1.0
 10
9.6908
 20
-5.8666
 30
0.0
 10
9.6908
 20
-5.8666
 30
0.0
 10
9.6908
 20
-5.8666
 30
0.0
 10
9.6908
 20
-5.8666
 30
0.0
 10
9.6908
 20
-5.8666
 30
0.0
 10
9.6908
 20
-5.8666
 30
0.0
 10
9.6908
 20
-5.8666
 30
0.0
 10
9.6908
 20
-5.8666
 30
0.0
 10
9.6908
 20
-5.8666
 30
0.0
 10
9.6908
 20
-5.8666
 30
0.0
 10
8.418
 20
-6.31
 30
0.0
 10
8.418
 20
-6.31
 30
0.0
 10
8.418
 20
-6.31
 30
0.0
 10
8.418
 20
-6.31
 30
0.0
 10
9.6908
 20
-6.7534
 30
0.0
 10
9.6908
 20
-6.7534
 30
0.0
 10
9.6908
 20
-6.7534
 30
0.0
 10
9.6908
 20
-6.7534
 30
0.0
 10
9.6908
 20
-6.7534
 30
0.0
 10
9.6908
 20
-6.7534
 30
0.0
 10
9.6908
 20
-6.7534
 30
0.0
 10
9.6908
 20
-6.7534
 30
0.0
 10
9.6908
 20
-6.7534
 30
0.0
 10
9.6908
 20
-6.7534
 30
0.0
 10
9.6908
 20
-6.7534
 30
0.0
 10
9.6908
 20
-6.7534
 30
0.0
 10
9.6908
 20
-5.8666
 30
0.0
 10
9.6908
 20
-5.8666
 30
0.0
  0
ENDSEC
  0
SECTION
  2
OBJECTS
  0
DICTIONARY
  5
C
330
0
100
AcDbDictionary
281
     1
  3
ACAD_GROUP
350
D
  3
ACAD_LAYOUT
350
1A
  3
ACAD_MATERIAL
350
3B
  3
ACAD_MLEADERSTYLE
350
1CA
  3
ACAD_MLINESTYLE
350
17
  3
ACAD_PLOTSETTINGS
350
19
  3
ACAD_PLOTSTYLENAME
350
E
  3
ACAD_VISUALSTYLE
350
2A
  3
AcDbVariableDictionary
350
1C8
  0
DICTIONARY
  5
D
102
{ACAD_REACTORS
330
C
102
}
330
C
100
AcDbDictionary
281
     1
  0
DICTIONARY
  5
1A
102
{ACAD_REACTORS
330
C
102
}
330
C
100
AcDbDictionary
281
     1
  3
Layout1
350
1E
  3
Layout2
350
26
  3
Model
350
22
  0
DICTIONARY
  5
3B
102
{ACAD_REACTORS
330
C
102
}
330
C
100
AcDbDictionary
281
     1
  3
ByBlock
350
3D
  3
ByLayer
350
3C
  3
Global
350
3E
  0
DICTIONARY
  5
1CA
102
{ACAD_REACTORS
330
C
102
}
330
C
100
AcDbDictionary
281
     1
  0
DICTIONARY
  5
17
102
{ACAD_REACTORS
330
C
102
}
330
C
100
AcDbDictionary
281
     1
  3
Standard
350
18
  0
DICTIONARY
  5
19
102
{ACAD_REACTORS
330
C
102
}
330
C
100
AcDbDictionary
281
     1
  0
ACDBDICTIONARYWDFLT
  5
E
102
{ACAD_REACTORS
330
C
102
}
330
C
100
AcDbDictionary
281
     1
  3
Normal
350
F
100
AcDbDictionaryWithDefault
340
F
  0
DICTIONARY
  5
2A
102
{ACAD_REACTORS
330
C
102
}
330
C
100
AcDbDictionary
281
     1
  3
2dWireframe
350
2F
  3
3D Hidden
350
31
  3
3dWireframe
350
30
  3
Basic
350
32
  3
Brighten
350
36
  3
ColorChange
350
3A
  3
Conceptual
350
34
  3
Dim
350
35
  3
Facepattern
350
39
  3
Flat
350
2B
  3
FlatWithEdges
350
2C
  3
Gouraud
350
2D
  3
GouraudWithEdges
350
2E
  3
Linepattern
350
38
  3
Realistic
350
33
  3
Thicken
350
37
  0
DICTIONARY
  5
1C8
102
{ACAD_REACTORS
330
C
102
}
330
C
100
AcDbDictionary
281
     1
  3
DIMASSOC
350
1CB
  3
HIDETEXT
350
1CC
  0
LAYOUT
  5
1E
102
{ACAD_REACTORS
330
1A
102
}
330
1A
100
AcDbPlotSettings
  1

  2
none_device
  4

  6

 40
0.0
 41
0.0
 42
0.0
 43
0.0
 44
0.0
 45
0.0
 46
0.0
 47
0.0
 48
0.0
 49
0.0
140
0.0
141
0.0
142
1.0
143
1.0
 70
   688
 72
     0
 73
     0
 74
     5
  7

 75
    16
147
1.0
148
0.0
149
0.0
100
AcDbLayout
  1
Layout1
 70
     1
 71
     1
 10
0.0
 20
0.0
 11
12.0
 21
9.0
 12
0.0
 22
0.0
 32
0.0
 14
1.000000000000000E+20
 24
1.000000000000000E+20
 34
1.000000000000000E+20
 15
-1.000000000000000E+20
 25
-1.000000000000000E+20
 35
-1.000000000000000E+20
146
0.0
 13
0.0
 23
0.0
 33
0.0
 16
1.0
 26
0.0
 36
0.0
 17
0.0
 27
1.0
 37
0.0
 76
     0
330
1B
  0
LAYOUT
  5
26
102
{ACAD_REACTORS
330
1A
102
}
330
1A
100
AcDbPlotSettings
  1

  2
none_device
  4

  6

 40
0.0
 41
0.0
 42
0.0
 43
0.0
 44
0.0
 45
0.0
 46
0.0
 47
0.0
 48
0.0
 49
0.0
140
0.0
141
0.0
142
1.0
143
1.0
 70
   688
 72
     0
 73
     0
 74
     5
  7

 75
    16
147
1.0
148
0.0
149
0.0
100
AcDbLayout
  1
Layout2
 70
     1
 71
     2
 10
0.0
 20
0.0
 11
0.0
 21
0.0
 12
0.0
 22
0.0
 32
0.0
 14
0.0
 24
0.0
 34
0.0
 15
0.0
 25
0.0
 35
0.0
146
0.0
 13
0.0
 23
0.0
 33
0.0
 16
1.0
 26
0.0
 36
0.0
 17
0.0
 27
1.0
 37
0.0
 76
     0
330
23
  0
LAYOUT
  5
22
102
{ACAD_REACTORS
330
1A
102
}
330
1A
100
AcDbPlotSettings
  1

  2
none_device
  4

  6

 40
0.0
 41
0.0
 42
0.0
 43
0.0
 44
0.0
 45
0.0
 46
0.0
 47
0.0
 48
0.0
 49
0.0
140
0.0
141
0.0
142
1.0
143
1.0
 70
  1712
 72
     0
 73
     0
 74
     0
  7

 75
     0
147
1.0
148
0.0
149
0.0
100
AcDbLayout
  1
Model
 70
     1
 71
     0
 10
0.0
 20
0.0
 11
12.0
 21
9.0
 12
0.0
 22
0.0
 32
0.0
 14
-43.7805
 24
-25.5436
 34
0.0
 15
43.7635
 25
25.5694
 35
0.0
146
0.0
 13
0.0
 23
0.0
 33
0.0
 16
1.0
 26
0.0
 36
0.0
 17
0.0
 27
1.0
 37
0.0
 76
     0
330
1F
331
29
  0
MATERIAL
  5
3D
102
{ACAD_REACTORS
330
3B
102
}
102
{ACAD_XDICTIONARY
360
1EF
102
}
330
3B
100
AcDbMaterial
  1
ByBlock
  0
MATERIAL
  5
3C
102
{ACAD_REACTORS
330
3B
102
}
102
{ACAD_XDICTIONARY
360
1ED
102
}
330
3B
100
AcDbMaterial
  1
ByLayer
  0
MATERIAL
  5
3E
102
{ACAD_REACTORS
330
3B
102
}
102
{ACAD_XDICTIONARY
360
1F1
102
}
330
3B
100
AcDbMaterial
  1
Global
  0
MLINESTYLE
  5
18
102
{ACAD_REACTORS
330
17
102
}
330
17
100
AcDbMlineStyle
  2
Standard
 70
     0
  3

 62
   256
 51
90.0
 52
90.0
 71
     2
 49
0.5
 62
   256
  6
BYLAYER
 49
-0.5
 62
   256
  6
BYLAYER
  0
ACDBPLACEHOLDER
  5
F
102
{ACAD_REACTORS
330
E
102
}
330
E
  0
VISUALSTYLE
  5
2F
102
{ACAD_REACTORS
330
2A
102
}
102
{ACAD_XDICTIONARY
360
1D5
102
}
330
2A
100
AcDbVisualStyle
  2
2dWireframe
 70
     4
 71
     0
 72
     2
 73
     0
 90
        0
 40
-0.6
 41
-30.0
 62
     5
 63
     7
 74
     1
 91
        4
 64
     7
 65
   257
 75
     1
175
     1
 42
1.0
 92
        0
 66
   257
 43
1.0
 76
     1
 77
     6
 78
     2
 67
     7
 79
     5
170
     0
171
     0
290
     0
174
     0
 93
        1
 44
0.0
173
     0
291
     0
 45
0.0
1001
ACAD
1000
AcDbSavedByObjectVersion
1070
     0
  0
VISUALSTYLE
  5
31
102
{ACAD_REACTORS
330
2A
102
}
102
{ACAD_XDICTIONARY
360
1D9
102
}
330
2A
100
AcDbVisualStyle
  2
3D Hidden
 70
     6
 71
     1
 72
     2
 73
     2
 90
        0
 40
-0.6
 41
-30.0
 62
     5
 63
     7
 74
     2
 91
        2
 64
     7
 65
   257
 75
     2
175
     1
 42
40.0
 92
        0
 66
   257
 43
1.0
 76
     1
 77
     6
 78
     2
 67
     7
 79
     3
170
     0
171
     0
290
     0
174
     0
 93
        1
 44
0.0
173
     0
291
     0
 45
0.0
1001
ACAD
1000
AcDbSavedByObjectVersion
1070
     0
  0
VISUALSTYLE
  5
30
102
{ACAD_REACTORS
330
2A
102
}
102
{ACAD_XDICTIONARY
360
1D7
102
}
330
2A
100
AcDbVisualStyle
  2
3dWireframe
 70
     5
 71
     0
 72
     2
 73
     0
 90
        0
 40
-0.6
 41
-30.0
 62
     5
 63
     7
 74
     1
 91
        4
 64
     7
 65
   257
 75
     1
175
     1
 42
1.0
 92
        0
 66
   257
 43
1.0
 76
     1
 77
     6
 78
     2
 67
     7
 79
     5
170
     0
171
     0
290
     0
174
     0
 93
        1
 44
0.0
173
     0
291
     0
 45
0.0
1001
ACAD
1000
AcDbSavedByObjectVersion
1070
     0
  0
VISUALSTYLE
  5
32
102
{ACAD_REACTORS
330
2A
102
}
102
{ACAD_XDICTIONARY
360
1DB
102
}
330
2A
100
AcDbVisualStyle
  2
Basic
 70
     7
 71
     1
 72
     0
 73
     1
 90
        0
 40
-0.6
 41
-30.0
 62
     5
 63
     7
 74
     0
 91
        4
 64
     7
 65
   257
 75
     1
175
     1
 42
1.0
 92
        8
 66
     7
 43
1.0
 76
     1
 77
     6
 78
     2
 67
     7
 79
     5
170
     0
171
     0
290
     0
174
     0
 93
        1
 44
0.0
173
     0
291
     1
 45
0.0
1001
ACAD
1000
AcDbSavedByObjectVersion
1070
     0
  0
VISUALSTYLE
  5
36
102
{ACAD_REACTORS
330
2A
102
}
102
{ACAD_XDICTIONARY
360
1E3
102
}
330
2A
100
AcDbVisualStyle
  2
Brighten
 70
    12
 71
     2
 72
     2
 73
     0
 90
        0
 40
-0.6
 41
-30.0
 62
     5
 63
     7
 74
     1
 91
        4
 64
     7
 65
   257
 75
     1
175
     1
 42
1.0
 92
        8
 66
     7
 43
1.0
 76
     1
 77
     6
 78
     2
 67
     7
 79
     5
170
     0
171
     0
290
     0
174
     0
 93
        1
 44
50.0
173
     0
291
     1
 45
0.0
1001
ACAD
1000
AcDbSavedByObjectVersion
1070
     0
  0
VISUALSTYLE
  5
3A
102
{ACAD_REACTORS
330
2A
102
}
102
{ACAD_XDICTIONARY
360
1EB
102
}
330
2A
100
AcDbVisualStyle
  2
ColorChange
 70
    16
 71
     2
 72
     2
 73
     3
 90
        0
 40
-0.6
 41
-30.0
 62
     5
 63
     8
 74
     1
 91
        4
 64
     7
 65
   257
 75
     1
175
     1
 42
1.0
 92
        8
 66
     8
 43
1.0
 76
     1
 77
     6
 78
     2
 67
     7
 79
     5
170
     0
171
     0
290
     0
174
     0
 93
        1
 44
0.0
173
     0
291
     1
 45
0.0
1001
ACAD
1000
AcDbSavedByObjectVersion
1070
     0
  0
VISUALSTYLE
  5
34
102
{ACAD_REACTORS
330
2A
102
}
102
{ACAD_XDICTIONARY
360
1DF
102
}
330
2A
100
AcDbVisualStyle
  2
Conceptual
 70
     9
 71
     3
 72
     2
 73
     0
 90
        0
 40
-0.6
 41
-30.0
 62
     5
 63
     7
 74
     2
 91
        2
 64
     7
 65
   257
 75
     1
175
     1
 42
40.0
 92
        8
 66
     7
 43
1.0
 76
     1
 77
     6
 78
     2
 67
     7
 79
     3
170
     0
171
     0
290
     0
174
     0
 93
        1
 44
0.0
173
     0
291
     0
 45
0.0
1001
ACAD
1000
AcDbSavedByObjectVersion
1070
     0
  0
VISUALSTYLE
  5
35
102
{ACAD_REACTORS
330
2A
102
}
102
{ACAD_XDICTIONARY
360
1E1
102
}
330
2A
100
AcDbVisualStyle
  2
Dim
 70
    11
 71
     2
 72
     2
 73
     0
 90
        0
 40
-0.6
 41
-30.0
 62
     5
 63
     7
 74
     1
 91
        4
 64
     7
 65
   257
 75
     1
175
     1
 42
1.0
 92
        8
 66
     7
 43
1.0
 76
     1
 77
     6
 78
     2
 67
     7
 79
     5
170
     0
171
     0
290
     0
174
     0
 93
        1
 44
-50.0
173
     0
291
     1
 45
0.0
1001
ACAD
1000
AcDbSavedByObjectVersion
1070
     0
  0
VISUALSTYLE
  5
39
102
{ACAD_REACTORS
330
2A
102
}
102
{ACAD_XDICTIONARY
360
1E9
102
}
330
2A
100
AcDbVisualStyle
  2
Facepattern
 70
    15
 71
     2
 72
     2
 73
     0
 90
        0
 40
-0.6
 41
-30.0
 62
     5
 63
     7
 74
     1
 91
        4
 64
     7
 65
   257
 75
     1
175
     1
 42
1.0
 92
        8
 66
     7
 43
1.0
 76
     1
 77
     6
 78
     2
 67
     7
 79
     5
170
     0
171
     0
290
     0
174
     0
 93
        1
 44
0.0
173
     0
291
     1
 45
0.0
1001
ACAD
1000
AcDbSavedByObjectVersion
1070
     0
  0
VISUALSTYLE
  5
2B
102
{ACAD_REACTORS
330
2A
102
}
102
{ACAD_XDICTIONARY
360
1CD
102
}
330
2A
100
AcDbVisualStyle
  2
Flat
 70
     0
 71
     2
 72
     1
 73
     1
 90
        2
 40
-0.6
 41
30.0
 62
     5
 63
     7
 74
     0
 91
        4
 64
     7
 65
   257
 75
     1
175
     1
 42
1.0
 92
        8
 66
     7
 43
1.0
 76
     1
 77
     6
 78
     2
 67
     7
 79
     5
170
     0
171
     0
290
     0
174
     0
 93
       13
 44
0.0
173
     0
291
     1
 45
0.0
1001
ACAD
1000
AcDbSavedByObjectVersion
1070
     0
  0
VISUALSTYLE
  5
2C
102
{ACAD_REACTORS
330
2A
102
}
102
{ACAD_XDICTIONARY
360
1CF
102
}
330
2A
100
AcDbVisualStyle
  2
FlatWithEdges
 70
     1
 71
     2
 72
     1
 73
     1
 90
        2
 40
-0.6
 41
30.0
 62
     5
 63
     7
 74
     1
 91
        4
 64
     7
 65
   257
 75
     1
175
     1
 42
1.0
 92
        0
 66
   257
 43
1.0
 76
     1
 77
     6
 78
     2
 67
     7
 79
     5
170
     0
171
     0
290
     0
174
     0
 93
       13
 44
0.0
173
     0
291
     1
 45
0.0
1001
ACAD
1000
AcDbSavedByObjectVersion
1070
     0
  0
VISUALSTYLE
  5
2D
102
{ACAD_REACTORS
330
2A
102
}
102
{ACAD_XDICTIONARY
360
1D1
102
}
330
2A
100
AcDbVisualStyle
  2
Gouraud
 70
     2
 71
     2
 72
     2
 73
     1
 90
        2
 40
-0.6
 41
30.0
 62
     5
 63
     7
 74
     0
 91
        4
 64
     7
 65
   257
 75
     1
175
     1
 42
1.0
 92
        0
 66
     7
 43
1.0
 76
     1
 77
     6
 78
     2
 67
     7
 79
     5
170
     0
171
     0
290
     0
174
     0
 93
       13
 44
0.0
173
     0
291
     1
 45
0.0
1001
ACAD
1000
AcDbSavedByObjectVersion
1070
     0
  0
VISUALSTYLE
  5
2E
102
{ACAD_REACTORS
330
2A
102
}
102
{ACAD_XDICTIONARY
360
1D3
102
}
330
2A
100
AcDbVisualStyle
  2
GouraudWithEdges
 70
     3
 71
     2
 72
     2
 73
     1
 90
        2
 40
-0.6
 41
30.0
 62
     5
 63
     7
 74
     1
 91
        4
 64
     7
 65
   257
 75
     1
175
     1
 42
1.0
 92
        0
 66
   257
 43
1.0
 76
     1
 77
     6
 78
     2
 67
     7
 79
     5
170
     0
171
     0
290
     0
174
     0
 93
       13
 44
0.0
173
     0
291
     1
 45
0.0
1001
ACAD
1000
AcDbSavedByObjectVersion
1070
     0
  0
VISUALSTYLE
  5
38
102
{ACAD_REACTORS
330
2A
102
}
102
{ACAD_XDICTIONARY
360
1E7
102
}
330
2A
100
AcDbVisualStyle
  2
Linepattern
 70
    14
 71
     2
 72
     2
 73
     0
 90
        0
 40
-0.6
 41
-30.0
 62
     5
 63
     7
 74
     1
 91
        4
 64
     7
 65
   257
 75
     7
175
     7
 42
1.0
 92
        8
 66
     7
 43
1.0
 76
     1
 77
     6
 78
     2
 67
     7
 79
     5
170
     0
171
     0
290
     0
174
     0
 93
        1
 44
0.0
173
     0
291
     1
 45
0.0
1001
ACAD
1000
AcDbSavedByObjectVersion
1070
     0
  0
VISUALSTYLE
  5
33
102
{ACAD_REACTORS
330
2A
102
}
102
{ACAD_XDICTIONARY
360
1DD
102
}
330
2A
100
AcDbVisualStyle
  2
Realistic
 70
     8
 71
     2
 72
     2
 73
     0
 90
        0
 40
-0.6
 41
-30.0
 62
     5
 63
     7
 74
     1
 91
        0
 64
     7
 65
   257
 75
     1
175
     1
 42
1.0
 92
        8
 66
     8
 43
1.0
 76
     1
 77
     6
 78
     2
 67
     7
 79
     5
170
     0
171
     0
290
     0
174
     0
 93
       13
 44
0.0
173
     0
291
     0
 45
0.0
1001
ACAD
1000
AcDbSavedByObjectVersion
1070
     0
  0
VISUALSTYLE
  5
37
102
{ACAD_REACTORS
330
2A
102
}
102
{ACAD_XDICTIONARY
360
1E5
102
}
330
2A
100
AcDbVisualStyle
  2
Thicken
 70
    13
 71
     2
 72
     2
 73
     0
 90
        0
 40
-0.6
 41
-30.0
 62
     5
 63
     7
 74
     1
 91
        4
 64
     7
 65
   257
 75
     1
175
     1
 42
1.0
 92
       12
 66
     7
 43
1.0
 76
     1
 77
     6
 78
     2
 67
     7
 79
     5
170
     0
171
     0
290
     0
174
     0
 93
        1
 44
0.0
173
     0
291
     1
 45
0.0
1001
ACAD
1000
AcDbSavedByObjectVersion
1070
     0
  0
DICTIONARYVAR
  5
1CB
102
{ACAD_REACTORS
330
1C8
102
}
330
1C8
100
DictionaryVariables
280
     0
  1
2
  0
DICTIONARYVAR
  5
1CC
102
{ACAD_REACTORS
330
1C8
102
}
330
1C8
100
DictionaryVariables
280
     0
  1
1
  0
DICTIONARY
  5
1EF
330
3D
100
AcDbDictionary
280
     1
281
     1
  3
ACAD_XREC_ROUNDTRIP
360
1F0
  0
DICTIONARY
  5
1ED
330
3C
100
AcDbDictionary
280
     1
281
     1
  3
ACAD_XREC_ROUNDTRIP
360
1EE
  0
DICTIONARY
  5
1F1
330
3E
100
AcDbDictionary
280
     1
281
     1
  3
ACAD_XREC_ROUNDTRIP
360
1F2
  0
DICTIONARY
  5
1D5
330
2F
100
AcDbDictionary
280
     1
281
     1
  3
ACAD_XREC_ROUNDTRIP
360
1D6
  0
DICTIONARY
  5
1D9
330
31
100
AcDbDictionary
280
     1
281
     1
  3
ACAD_XREC_ROUNDTRIP
360
1DA
  0
DICTIONARY
  5
1D7
330
30
100
AcDbDictionary
280
     1
281
     1
  3
ACAD_XREC_ROUNDTRIP
360
1D8
  0
DICTIONARY
  5
1DB
330
32
100
AcDbDictionary
280
     1
281
     1
  3
ACAD_XREC_ROUNDTRIP
360
1DC
  0
DICTIONARY
  5
1E3
330
36
100
AcDbDictionary
280
     1
281
     1
  3
ACAD_XREC_ROUNDTRIP
360
1E4
  0
DICTIONARY
  5
1EB
330
3A
100
AcDbDictionary
280
     1
281
     1
  3
ACAD_XREC_ROUNDTRIP
360
1EC
  0
DICTIONARY
  5
1DF
330
34
100
AcDbDictionary
280
     1
281
     1
  3
ACAD_XREC_ROUNDTRIP
360
1E0
  0
DICTIONARY
  5
1E1
330
35
100
AcDbDictionary
280
     1
281
     1
  3
ACAD_XREC_ROUNDTRIP
360
1E2
  0
DICTIONARY
  5
1E9
330
39
100
AcDbDictionary
280
     1
281
     1
  3
ACAD_XREC_ROUNDTRIP
360
1EA
  0
DICTIONARY
  5
1CD
330
2B
100
AcDbDictionary
280
     1
281
     1
  3
ACAD_XREC_ROUNDTRIP
360
1CE
  0
DICTIONARY
  5
1CF
330
2C
100
AcDbDictionary
280
     1
281
     1
  3
ACAD_XREC_ROUNDTRIP
360
1D0
  0
DICTIONARY
  5
1D1
330
2D
100
AcDbDictionary
280
     1
281
     1
  3
ACAD_XREC_ROUNDTRIP
360
1D2
  0
DICTIONARY
  5
1D3
330
2E
100
AcDbDictionary
280
     1
281
     1
  3
ACAD_XREC_ROUNDTRIP
360
1D4
  0
DICTIONARY
  5
1E7
330
38
100
AcDbDictionary
280
     1
281
     1
  3
ACAD_XREC_ROUNDTRIP
360
1E8
  0
DICTIONARY
  5
1DD
330
33
100
AcDbDictionary
280
     1
281
     1
  3
ACAD_XREC_ROUNDTRIP
360
1DE
  0
DICTIONARY
  5
1E5
330
37
100
AcDbDictionary
280
     1
281
     1
  3
ACAD_XREC_ROUNDTRIP
360
1E6
  0
XRECORD
  5
1F0
102
{ACAD_REACTORS
330
1EF
102
}
330
1EF
100
AcDbXrecord
280
     1
102
MATERIAL
148
0.0
149
0.0
149
0.0
 93
        0
 94
      127
282
     0
 72
     1
 77
     1
171
     1
175
     1
179
     1
273
     0
  0
XRECORD
  5
1EE
102
{ACAD_REACTORS
330
1ED
102
}
330
1ED
100
AcDbXrecord
280
     1
102
MATERIAL
148
0.0
149
0.0
149
0.0
 93
        0
 94
      127
282
     0
 72
     1
 77
     1
171
     1
175
     1
179
     1
273
     0
  0
XRECORD
  5
1F2
102
{ACAD_REACTORS
330
1F1
102
}
330
1F1
100
AcDbXrecord
280
     1
102
MATERIAL
148
0.0
149
0.0
149
0.0
 93
        0
 94
      127
282
     0
 72
     1
 77
     1
171
     1
175
     1
179
     1
273
     0
  0
XRECORD
  5
1D6
102
{ACAD_REACTORS
330
1D5
102
}
330
1D5
100
AcDbXrecord
280
     1
102
RTVSPropertyOp0
 70
     1
102
RTVSPropertyOp1
 70
     1
102
RTVSPropertyOp2
 70
     1
102
RTVSPropertyOp3
 70
     1
102
RTVSPropertyOp4
 70
     1
102
RTVSPropertyOp5
 70
     1
102
RTVSPropertyOp6
 70
     1
102
RTVSPropertyOp7
 70
     1
102
RTVSPropertyOp8
 70
     1
102
RTVSPropertyOp9
 70
     1
102
RTVSPropertyOp10
 70
     1
102
RTVSPropertyOp11
 70
     1
102
RTVSPropertyOp12
 70
     1
102
RTVSPropertyOp13
 70
     1
102
RTVSPropertyOp14
 70
     1
102
RTVSPropertyOp15
 70
     1
102
RTVSPropertyOp16
 70
     1
102
RTVSPropertyOp17
 70
     1
102
RTVSPropertyOp18
 70
     1
102
RTVSPropertyOp19
 70
     1
102
RTVSPropertyOp20
 70
     1
102
RTVSPropertyOp21
 70
     1
102
RTVSPropertyOp22
 70
     1
102
RTVSPropertyOp23
 70
     1
102
RTVSPropertyOp24
 70
     1
102
RTVSPropertyOp25
 70
     1
102
RTVSPropertyOp26
 70
     1
102
RTVSPropertyOp27
 70
     1
  0
XRECORD
  5
1DA
102
{ACAD_REACTORS
330
1D9
102
}
330
1D9
100
AcDbXrecord
280
     1
102
RTVSPropertyOp0
 70
     1
102
RTVSPropertyOp1
 70
     1
102
RTVSPropertyOp2
 70
     1
102
RTVSPropertyOp3
 70
     1
102
RTVSPropertyOp4
 70
     1
102
RTVSPropertyOp5
 70
     1
102
RTVSPropertyOp6
 70
     1
102
RTVSPropertyOp7
 70
     1
102
RTVSPropertyOp8
 70
     1
102
RTVSPropertyOp9
 70
     1
102
RTVSPropertyOp10
 70
     1
102
RTVSPropertyOp11
 70
     1
102
RTVSPropertyOp12
 70
     1
102
RTVSPropertyOp13
 70
     1
102
RTVSPropertyOp14
 70
     1
102
RTVSPropertyOp15
 70
     1
102
RTVSPropertyOp16
 70
     1
102
RTVSPropertyOp17
 70
     1
102
RTVSPropertyOp18
 70
     1
102
RTVSPropertyOp19
 70
     1
102
RTVSPropertyOp20
 70
     1
102
RTVSPropertyOp21
 70
     1
102
RTVSPropertyOp22
 70
     1
102
RTVSPropertyOp23
 70
     1
102
RTVSPropertyOp24
 70
     1
102
RTVSPropertyOp25
 70
     1
102
RTVSPropertyOp26
 70
     1
102
RTVSPropertyOp27
 70
     1
  0
XRECORD
  5
1D8
102
{ACAD_REACTORS
330
1D7
102
}
330
1D7
100
AcDbXrecord
280
     1
102
RTVSPropertyOp0
 70
     1
102
RTVSPropertyOp1
 70
     1
102
RTVSPropertyOp2
 70
     1
102
RTVSPropertyOp3
 70
     1
102
RTVSPropertyOp4
 70
     1
102
RTVSPropertyOp5
 70
     1
102
RTVSPropertyOp6
 70
     1
102
RTVSPropertyOp7
 70
     1
102
RTVSPropertyOp8
 70
     1
102
RTVSPropertyOp9
 70
     1
102
RTVSPropertyOp10
 70
     1
102
RTVSPropertyOp11
 70
     1
102
RTVSPropertyOp12
 70
     1
102
RTVSPropertyOp13
 70
     1
102
RTVSPropertyOp14
 70
     1
102
RTVSPropertyOp15
 70
     1
102
RTVSPropertyOp16
 70
     1
102
RTVSPropertyOp17
 70
     1
102
RTVSPropertyOp18
 70
     1
102
RTVSPropertyOp19
 70
     1
102
RTVSPropertyOp20
 70
     1
102
RTVSPropertyOp21
 70
     1
102
RTVSPropertyOp22
 70
     1
102
RTVSPropertyOp23
 70
     1
102
RTVSPropertyOp24
 70
     1
102
RTVSPropertyOp25
 70
     1
102
RTVSPropertyOp26
 70
     1
102
RTVSPropertyOp27
 70
     1
  0
XRECORD
  5
1DC
102
{ACAD_REACTORS
330
1DB
102
}
330
1DB
100
AcDbXrecord
280
     1
102
RTVSPropertyOp0
 70
     1
102
RTVSPropertyOp1
 70
     1
102
RTVSPropertyOp2
 70
     1
102
RTVSPropertyOp3
 70
     1
102
RTVSPropertyOp4
 70
     1
102
RTVSPropertyOp5
 70
     1
102
RTVSPropertyOp6
 70
     1
102
RTVSPropertyOp7
 70
     1
102
RTVSPropertyOp8
 70
     1
102
RTVSPropertyOp9
 70
     1
102
RTVSPropertyOp10
 70
     1
102
RTVSPropertyOp11
 70
     1
102
RTVSPropertyOp12
 70
     1
102
RTVSPropertyOp13
 70
     1
102
RTVSPropertyOp14
 70
     1
102
RTVSPropertyOp15
 70
     1
102
RTVSPropertyOp16
 70
     1
102
RTVSPropertyOp17
 70
     1
102
RTVSPropertyOp18
 70
     1
102
RTVSPropertyOp19
 70
     1
102
RTVSPropertyOp20
 70
     1
102
RTVSPropertyOp21
 70
     1
102
RTVSPropertyOp22
 70
     1
102
RTVSPropertyOp23
 70
     1
102
RTVSPropertyOp24
 70
     1
102
RTVSPropertyOp25
 70
     1
102
RTVSPropertyOp26
 70
     1
102
RTVSPropertyOp27
 70
     1
  0
XRECORD
  5
1E4
102
{ACAD_REACTORS
330
1E3
102
}
330
1E3
100
AcDbXrecord
280
     1
102
RTVSPropertyOp0
 70
     1
102
RTVSPropertyOp1
 70
     1
102
RTVSPropertyOp2
 70
     1
102
RTVSPropertyOp3
 70
     1
102
RTVSPropertyOp4
 70
     1
102
RTVSPropertyOp5
 70
     1
102
RTVSPropertyOp6
 70
     1
102
RTVSPropertyOp7
 70
     1
102
RTVSPropertyOp8
 70
     1
102
RTVSPropertyOp9
 70
     1
102
RTVSPropertyOp10
 70
     1
102
RTVSPropertyOp11
 70
     1
102
RTVSPropertyOp12
 70
     1
102
RTVSPropertyOp13
 70
     1
102
RTVSPropertyOp14
 70
     1
102
RTVSPropertyOp15
 70
     1
102
RTVSPropertyOp16
 70
     1
102
RTVSPropertyOp17
 70
     1
102
RTVSPropertyOp18
 70
     1
102
RTVSPropertyOp19
 70
     1
102
RTVSPropertyOp20
 70
     1
102
RTVSPropertyOp21
 70
     1
102
RTVSPropertyOp22
 70
     1
102
RTVSPropertyOp23
 70
     1
102
RTVSPropertyOp24
 70
     1
102
RTVSPropertyOp25
 70
     1
102
RTVSPropertyOp26
 70
     1
102
RTVSPropertyOp27
 70
     1
  0
XRECORD
  5
1EC
102
{ACAD_REACTORS
330
1EB
102
}
330
1EB
100
AcDbXrecord
280
     1
102
RTVSPropertyOp0
 70
     1
102
RTVSPropertyOp1
 70
     1
102
RTVSPropertyOp2
 70
     1
102
RTVSPropertyOp3
 70
     1
102
RTVSPropertyOp4
 70
     1
102
RTVSPropertyOp5
 70
     1
102
RTVSPropertyOp6
 70
     1
102
RTVSPropertyOp7
 70
     1
102
RTVSPropertyOp8
 70
     1
102
RTVSPropertyOp9
 70
     1
102
RTVSPropertyOp10
 70
     1
102
RTVSPropertyOp11
 70
     1
102
RTVSPropertyOp12
 70
     1
102
RTVSPropertyOp13
 70
     1
102
RTVSPropertyOp14
 70
     1
102
RTVSPropertyOp15
 70
     1
102
RTVSPropertyOp16
 70
     1
102
RTVSPropertyOp17
 70
     1
102
RTVSPropertyOp18
 70
     1
102
RTVSPropertyOp19
 70
     1
102
RTVSPropertyOp20
 70
     1
102
RTVSPropertyOp21
 70
     1
102
RTVSPropertyOp22
 70
     1
102
RTVSPropertyOp23
 70
     1
102
RTVSPropertyOp24
 70
     1
102
RTVSPropertyOp25
 70
     1
102
RTVSPropertyOp26
 70
     1
102
RTVSPropertyOp27
 70
     1
  0
XRECORD
  5
1E0
102
{ACAD_REACTORS
330
1DF
102
}
330
1DF
100
AcDbXrecord
280
     1
102
RTVSPropertyOp0
 70
     1
102
RTVSPropertyOp1
 70
     1
102
RTVSPropertyOp2
 70
     1
102
RTVSPropertyOp3
 70
     1
102
RTVSPropertyOp4
 70
     1
102
RTVSPropertyOp5
 70
     1
102
RTVSPropertyOp6
 70
     1
102
RTVSPropertyOp7
 70
     1
102
RTVSPropertyOp8
 70
     1
102
RTVSPropertyOp9
 70
     1
102
RTVSPropertyOp10
 70
     1
102
RTVSPropertyOp11
 70
     1
102
RTVSPropertyOp12
 70
     1
102
RTVSPropertyOp13
 70
     1
102
RTVSPropertyOp14
 70
     1
102
RTVSPropertyOp15
 70
     1
102
RTVSPropertyOp16
 70
     1
102
RTVSPropertyOp17
 70
     1
102
RTVSPropertyOp18
 70
     1
102
RTVSPropertyOp19
 70
     1
102
RTVSPropertyOp20
 70
     1
102
RTVSPropertyOp21
 70
     1
102
RTVSPropertyOp22
 70
     1
102
RTVSPropertyOp23
 70
     1
102
RTVSPropertyOp24
 70
     1
102
RTVSPropertyOp25
 70
     1
102
RTVSPropertyOp26
 70
     1
102
RTVSPropertyOp27
 70
     1
  0
XRECORD
  5
1E2
102
{ACAD_REACTORS
330
1E1
102
}
330
1E1
100
AcDbXrecord
280
     1
102
RTVSPropertyOp0
 70
     1
102
RTVSPropertyOp1
 70
     1
102
RTVSPropertyOp2
 70
     1
102
RTVSPropertyOp3
 70
     1
102
RTVSPropertyOp4
 70
     1
102
RTVSPropertyOp5
 70
     1
102
RTVSPropertyOp6
 70
     1
102
RTVSPropertyOp7
 70
     1
102
RTVSPropertyOp8
 70
     1
102
RTVSPropertyOp9
 70
     1
102
RTVSPropertyOp10
 70
     1
102
RTVSPropertyOp11
 70
     1
102
RTVSPropertyOp12
 70
     1
102
RTVSPropertyOp13
 70
     1
102
RTVSPropertyOp14
 70
     1
102
RTVSPropertyOp15
 70
     1
102
RTVSPropertyOp16
 70
     1
102
RTVSPropertyOp17
 70
     1
102
RTVSPropertyOp18
 70
     1
102
RTVSPropertyOp19
 70
     1
102
RTVSPropertyOp20
 70
     1
102
RTVSPropertyOp21
 70
     1
102
RTVSPropertyOp22
 70
     1
102
RTVSPropertyOp23
 70
     1
102
RTVSPropertyOp24
 70
     1
102
RTVSPropertyOp25
 70
     1
102
RTVSPropertyOp26
 70
     1
102
RTVSPropertyOp27
 70
     1
  0
XRECORD
  5
1EA
102
{ACAD_REACTORS
330
1E9
102
}
330
1E9
100
AcDbXrecord
280
     1
102
RTVSPropertyOp0
 70
     1
102
RTVSPropertyOp1
 70
     1
102
RTVSPropertyOp2
 70
     1
102
RTVSPropertyOp3
 70
     1
102
RTVSPropertyOp4
 70
     1
102
RTVSPropertyOp5
 70
     1
102
RTVSPropertyOp6
 70
     1
102
RTVSPropertyOp7
 70
     1
102
RTVSPropertyOp8
 70
     1
102
RTVSPropertyOp9
 70
     1
102
RTVSPropertyOp10
 70
     1
102
RTVSPropertyOp11
 70
     1
102
RTVSPropertyOp12
 70
     1
102
RTVSPropertyOp13
 70
     1
102
RTVSPropertyOp14
 70
     1
102
RTVSPropertyOp15
 70
     1
102
RTVSPropertyOp16
 70
     1
102
RTVSPropertyOp17
 70
     1
102
RTVSPropertyOp18
 70
     1
102
RTVSPropertyOp19
 70
     1
102
RTVSPropertyOp20
 70
     1
102
RTVSPropertyOp21
 70
     1
102
RTVSPropertyOp22
 70
     1
102
RTVSPropertyOp23
 70
     1
102
RTVSPropertyOp24
 70
     1
102
RTVSPropertyOp25
 70
     1
102
RTVSPropertyOp26
 70
     1
102
RTVSPropertyOp27
 70
     1
  0
XRECORD
  5
1CE
102
{ACAD_REACTORS
330
1CD
102
}
330
1CD
100
AcDbXrecord
280
     1
102
RTVSPropertyOp0
 70
     1
102
RTVSPropertyOp1
 70
     1
102
RTVSPropertyOp2
 70
     1
102
RTVSPropertyOp3
 70
     1
102
RTVSPropertyOp4
 70
     1
102
RTVSPropertyOp5
 70
     1
102
RTVSPropertyOp6
 70
     1
102
RTVSPropertyOp7
 70
     1
102
RTVSPropertyOp8
 70
     1
102
RTVSPropertyOp9
 70
     1
102
RTVSPropertyOp10
 70
     1
102
RTVSPropertyOp11
 70
     1
102
RTVSPropertyOp12
 70
     1
102
RTVSPropertyOp13
 70
     1
102
RTVSPropertyOp14
 70
     1
102
RTVSPropertyOp15
 70
     1
102
RTVSPropertyOp16
 70
     1
102
RTVSPropertyOp17
 70
     1
102
RTVSPropertyOp18
 70
     1
102
RTVSPropertyOp19
 70
     1
102
RTVSPropertyOp20
 70
     1
102
RTVSPropertyOp21
 70
     1
102
RTVSPropertyOp22
 70
     1
102
RTVSPropertyOp23
 70
     1
102
RTVSPropertyOp24
 70
     1
102
RTVSPropertyOp25
 70
     1
102
RTVSPropertyOp26
 70
     1
102
RTVSPropertyOp27
 70
     1
  0
XRECORD
  5
1D0
102
{ACAD_REACTORS
330
1CF
102
}
330
1CF
100
AcDbXrecord
280
     1
102
RTVSPropertyOp0
 70
     1
102
RTVSPropertyOp1
 70
     1
102
RTVSPropertyOp2
 70
     1
102
RTVSPropertyOp3
 70
     1
102
RTVSPropertyOp4
 70
     1
102
RTVSPropertyOp5
 70
     1
102
RTVSPropertyOp6
 70
     1
102
RTVSPropertyOp7
 70
     1
102
RTVSPropertyOp8
 70
     1
102
RTVSPropertyOp9
 70
     1
102
RTVSPropertyOp10
 70
     1
102
RTVSPropertyOp11
 70
     1
102
RTVSPropertyOp12
 70
     1
102
RTVSPropertyOp13
 70
     1
102
RTVSPropertyOp14
 70
     1
102
RTVSPropertyOp15
 70
     1
102
RTVSPropertyOp16
 70
     1
102
RTVSPropertyOp17
 70
     1
102
RTVSPropertyOp18
 70
     1
102
RTVSPropertyOp19
 70
     1
102
RTVSPropertyOp20
 70
     1
102
RTVSPropertyOp21
 70
     1
102
RTVSPropertyOp22
 70
     1
102
RTVSPropertyOp23
 70
     1
102
RTVSPropertyOp24
 70
     1
102
RTVSPropertyOp25
 70
     1
102
RTVSPropertyOp26
 70
     1
102
RTVSPropertyOp27
 70
     1
  0
XRECORD
  5
1D2
102
{ACAD_REACTORS
330
1D1
102
}
330
1D1
100
AcDbXrecord
280
     1
102
RTVSPropertyOp0
 70
     1
102
RTVSPropertyOp1
 70
     1
102
RTVSPropertyOp2
 70
     1
102
RTVSPropertyOp3
 70
     1
102
RTVSPropertyOp4
 70
     1
102
RTVSPropertyOp5
 70
     1
102
RTVSPropertyOp6
 70
     1
102
RTVSPropertyOp7
 70
     1
102
RTVSPropertyOp8
 70
     1
102
RTVSPropertyOp9
 70
     1
102
RTVSPropertyOp10
 70
     1
102
RTVSPropertyOp11
 70
     1
102
RTVSPropertyOp12
 70
     1
102
RTVSPropertyOp13
 70
     1
102
RTVSPropertyOp14
 70
     1
102
RTVSPropertyOp15
 70
     1
102
RTVSPropertyOp16
 70
     1
102
RTVSPropertyOp17
 70
     1
102
RTVSPropertyOp18
 70
     1
102
RTVSPropertyOp19
 70
     1
102
RTVSPropertyOp20
 70
     1
102
RTVSPropertyOp21
 70
     1
102
RTVSPropertyOp22
 70
     1
102
RTVSPropertyOp23
 70
     1
102
RTVSPropertyOp24
 70
     1
102
RTVSPropertyOp25
 70
     1
102
RTVSPropertyOp26
 70
     1
102
RTVSPropertyOp27
 70
     1
  0
XRECORD
  5
1D4
102
{ACAD_REACTORS
330
1D3
102
}
330
1D3
100
AcDbXrecord
280
     1
102
RTVSPropertyOp0
 70
     1
102
RTVSPropertyOp1
 70
     1
102
RTVSPropertyOp2
 70
     1
102
RTVSPropertyOp3
 70
     1
102
RTVSPropertyOp4
 70
     1
102
RTVSPropertyOp5
 70
     1
102
RTVSPropertyOp6
 70
     1
102
RTVSPropertyOp7
 70
     1
102
RTVSPropertyOp8
 70
     1
102
RTVSPropertyOp9
 70
     1
102
RTVSPropertyOp10
 70
     1
102
RTVSPropertyOp11
 70
     1
102
RTVSPropertyOp12
 70
     1
102
RTVSPropertyOp13
 70
     1
102
RTVSPropertyOp14
 70
     1
102
RTVSPropertyOp15
 70
     1
102
RTVSPropertyOp16
 70
     1
102
RTVSPropertyOp17
 70
     1
102
RTVSPropertyOp18
 70
     1
102
RTVSPropertyOp19
 70
     1
102
RTVSPropertyOp20
 70
     1
102
RTVSPropertyOp21
 70
     1
102
RTVSPropertyOp22
 70
     1
102
RTVSPropertyOp23
 70
     1
102
RTVSPropertyOp24
 70
     1
102
RTVSPropertyOp25
 70
     1
102
RTVSPropertyOp26
 70
     1
102
RTVSPropertyOp27
 70
     1
  0
XRECORD
  5
1E8
102
{ACAD_REACTORS
330
1E7
102
}
330
1E7
100
AcDbXrecord
280
     1
102
RTVSPropertyOp0
 70
     1
102
RTVSPropertyOp1
 70
     1
102
RTVSPropertyOp2
 70
     1
102
RTVSPropertyOp3
 70
     1
102
RTVSPropertyOp4
 70
     1
102
RTVSPropertyOp5
 70
     1
102
RTVSPropertyOp6
 70
     1
102
RTVSPropertyOp7
 70
     1
102
RTVSPropertyOp8
 70
     1
102
RTVSPropertyOp9
 70
     1
102
RTVSPropertyOp10
 70
     1
102
RTVSPropertyOp11
 70
     1
102
RTVSPropertyOp12
 70
     1
102
RTVSPropertyOp13
 70
     1
102
RTVSPropertyOp14
 70
     1
102
RTVSPropertyOp15
 70
     1
102
RTVSPropertyOp16
 70
     1
102
RTVSPropertyOp17
 70
     1
102
RTVSPropertyOp18
 70
     1
102
RTVSPropertyOp19
 70
     1
102
RTVSPropertyOp20
 70
     1
102
RTVSPropertyOp21
 70
     1
102
RTVSPropertyOp22
 70
     1
102
RTVSPropertyOp23
 70
     1
102
RTVSPropertyOp24
 70
     1
102
RTVSPropertyOp25
 70
     1
102
RTVSPropertyOp26
 70
     1
102
RTVSPropertyOp27
 70
     1
  0
XRECORD
  5
1DE
102
{ACAD_REACTORS
330
1DD
102
}
330
1DD
100
AcDbXrecord
280
     1
102
RTVSPropertyOp0
 70
     1
102
RTVSPropertyOp1
 70
     1
102
RTVSPropertyOp2
 70
     1
102
RTVSPropertyOp3
 70
     1
102
RTVSPropertyOp4
 70
     1
102
RTVSPropertyOp5
 70
     1
102
RTVSPropertyOp6
 70
     1
102
RTVSPropertyOp7
 70
     1
102
RTVSPropertyOp8
 70
     1
102
RTVSPropertyOp9
 70
     1
102
RTVSPropertyOp10
 70
     1
102
RTVSPropertyOp11
 70
     1
102
RTVSPropertyOp12
 70
     1
102
RTVSPropertyOp13
 70
     1
102
RTVSPropertyOp14
 70
     1
102
RTVSPropertyOp15
 70
     1
102
RTVSPropertyOp16
 70
     1
102
RTVSPropertyOp17
 70
     1
102
RTVSPropertyOp18
 70
     1
102
RTVSPropertyOp19
 70
     1
102
RTVSPropertyOp20
 70
     1
102
RTVSPropertyOp21
 70
     1
102
RTVSPropertyOp22
 70
     1
102
RTVSPropertyOp23
 70
     1
102
RTVSPropertyOp24
 70
     1
102
RTVSPropertyOp25
 70
     1
102
RTVSPropertyOp26
 70
     1
102
RTVSPropertyOp27
 70
     1
  0
XRECORD
  5
1E6
102
{ACAD_REACTORS
330
1E5
102
}
330
1E5
100
AcDbXrecord
280
     1
102
RTVSPropertyOp0
 70
     1
102
RTVSPropertyOp1
 70
     1
102
RTVSPropertyOp2
 70
     1
102
RTVSPropertyOp3
 70
     1
102
RTVSPropertyOp4
 70
     1
102
RTVSPropertyOp5
 70
     1
102
RTVSPropertyOp6
 70
     1
102
RTVSPropertyOp7
 70
     1
102
RTVSPropertyOp8
 70
     1
102
RTVSPropertyOp9
 70
     1
102
RTVSPropertyOp10
 70
     1
102
RTVSPropertyOp11
 70
     1
102
RTVSPropertyOp12
 70
     1
102
RTVSPropertyOp13
 70
     1
102
RTVSPropertyOp14
 70
     1
102
RTVSPropertyOp15
 70
     1
102
RTVSPropertyOp16
 70
     1
102
RTVSPropertyOp17
 70
     1
102
RTVSPropertyOp18
 70
     1
102
RTVSPropertyOp19
 70
     1
102
RTVSPropertyOp20
 70
     1
102
RTVSPropertyOp21
 70
     1
102
RTVSPropertyOp22
 70
     1
102
RTVSPropertyOp23
 70
     1
102
RTVSPropertyOp24
 70
     1
102
RTVSPropertyOp25
 70
     1
102
RTVSPropertyOp26
 70
     1
102
RTVSPropertyOp27
 70
     1
  0
ENDSEC
  0
EOF
