  0
SECTION
  2
HEADER
  9
$ACADVER
  1
AC1015
  9
$ACADMAINTVER
 70
    20
  9
$DWGCODEPAGE
  3
ANSI_1252
  9
$INSBASE
 10
0.0
 20
0.0
 30
0.0
  9
$EXTMIN
 10
202.1086978029379
 20
140.6377130462232
 30
0.0
  9
$EXTMAX
 10
203.1051764593647
 20
140.9580092025813
 30
0.0
  9
$LIMMIN
 10
0.0
 20
0.0
  9
$LIMMAX
 10
420.0
 20
297.0
  9
$ORTHOMODE
 70
     1
  9
$REGENMODE
 70
     1
  9
$FILLMODE
 70
     1
  9
$QTEXTMODE
 70
     0
  9
$MIRRTEXT
 70
     0
  9
$LTSCALE
 40
1.0
  9
$ATTMODE
 70
     1
  9
$TEXTSIZE
 40
2.5
  9
$TRACEWID
 40
1.0
  9
$TEXTSTYLE
  7
Standard
  9
$CLAYER
  8
0
  9
$CELTYPE
  6
ByLayer
  9
$CECOLOR
 62
   256
  9
$CELTSCALE
 40
1.0
  9
$DISPSILH
 70
     0
  9
$DIMSCALE
 40
1.0
  9
$DIMASZ
 40
2.5
  9
$DIMEXO
 40
0.625
  9
$DIMDLI
 40
3.75
  9
$DIMRND
 40
0.0
  9
$DIMDLE
 40
0.0
  9
$DIMEXE
 40
1.25
  9
$DIMTP
 40
0.0
  9
$DIMTM
 40
0.0
  9
$DIMTXT
 40
2.5
  9
$DIMCEN
 40
2.5
  9
$DIMTSZ
 40
0.0
  9
$DIMTOL
 70
     0
  9
$DIMLIM
 70
     0
  9
$DIMTIH
 70
     0
  9
$DIMTOH
 70
     0
  9
$DIMSE1
 70
     0
  9
$DIMSE2
 70
     0
  9
$DIMTAD
 70
     1
  9
$DIMZIN
 70
     8
  9
$DIMBLK
  1

  9
$DIMASO
 70
     1
  9
$DIMSHO
 70
     1
  9
$DIMPOST
  1

  9
$DIMAPOST
  1

  9
$DIMALT
 70
     0
  9
$DIMALTD
 70
     3
  9
$DIMALTF
 40
0.03937007874016
  9
$DIMLFAC
 40
1.0
  9
$DIMTOFL
 70
     1
  9
$DIMTVP
 40
0.0
  9
$DIMTIX
 70
     0
  9
$DIMSOXD
 70
     0
  9
$DIMSAH
 70
     0
  9
$DIMBLK1
  1

  9
$DIMBLK2
  1

  9
$DIMSTYLE
  2
ISO-25
  9
$DIMCLRD
 70
     0
  9
$DIMCLRE
 70
     0
  9
$DIMCLRT
 70
     0
  9
$DIMTFAC
 40
1.0
  9
$DIMGAP
 40
0.625
  9
$DIMJUST
 70
     0
  9
$DIMSD1
 70
     0
  9
$DIMSD2
 70
     0
  9
$DIMTOLJ
 70
     0
  9
$DIMTZIN
 70
     8
  9
$DIMALTZ
 70
     0
  9
$DIMALTTZ
 70
     0
  9
$DIMUPT
 70
     0
  9
$DIMDEC
 70
     2
  9
$DIMTDEC
 70
     2
  9
$DIMALTU
 70
     2
  9
$DIMALTTD
 70
     3
  9
$DIMTXSTY
  7
Standard
  9
$DIMAUNIT
 70
     0
  9
$DIMADEC
 70
     0
  9
$DIMALTRND
 40
0.0
  9
$DIMAZIN
 70
     0
  9
$DIMDSEP
 70
    44
  9
$DIMATFIT
 70
     3
  9
$DIMFRAC
 70
     0
  9
$DIMLDRBLK
  1

  9
$DIMLUNIT
 70
     2
  9
$DIMLWD
 70
    -2
  9
$DIMLWE
 70
    -2
  9
$DIMTMOVE
 70
     0
  9
$LUNITS
 70
     2
  9
$LUPREC
 70
     4
  9
$SKETCHINC
 40
1.0
  9
$FILLETRAD
 40
0.0
  9
$AUNITS
 70
     0
  9
$AUPREC
 70
     0
  9
$MENU
  1
.
  9
$ELEVATION
 40
0.0
  9
$PELEVATION
 40
0.0
  9
$THICKNESS
 40
0.0
  9
$LIMCHECK
 70
     0
  9
$CHAMFERA
 40
0.0
  9
$CHAMFERB
 40
0.0
  9
$CHAMFERC
 40
0.0
  9
$CHAMFERD
 40
0.0
  9
$SKPOLY
 70
     0
  9
$TDCREATE
 40
2453931.398281782
  9
$TDUCREATE
 40
2453931.356615116
  9
$TDUPDATE
 40
2453931.443709665
  9
$TDUUPDATE
 40
2453931.402042997
  9
$TDINDWG
 40
0.0454285995
  9
$TDUSRTIMER
 40
0.0454284259
  9
$USRTIMER
 70
     1
  9
$ANGBASE
 50
0.0
  9
$ANGDIR
 70
     0
  9
$PDMODE
 70
     0
  9
$PDSIZE
 40
0.0
  9
$PLINEWID
 40
0.0
  9
$SPLFRAME
 70
     0
  9
$SPLINETYPE
 70
     6
  9
$SPLINESEGS
 70
     8
  9
$HANDSEED
  5
2725
  9
$SURFTAB1
 70
     6
  9
$SURFTAB2
 70
     6
  9
$SURFTYPE
 70
     6
  9
$SURFU
 70
     6
  9
$SURFV
 70
     6
  9
$UCSBASE
  2

  9
$UCSNAME
  2

  9
$UCSORG
 10
0.0
 20
0.0
 30
0.0
  9
$UCSXDIR
 10
1.0
 20
0.0
 30
0.0
  9
$UCSYDIR
 10
0.0
 20
1.0
 30
0.0
  9
$UCSORTHOREF
  2

  9
$UCSORTHOVIEW
 70
     0
  9
$UCSORGTOP
 10
0.0
 20
0.0
 30
0.0
  9
$UCSORGBOTTOM
 10
0.0
 20
0.0
 30
0.0
  9
$UCSORGLEFT
 10
0.0
 20
0.0
 30
0.0
  9
$UCSORGRIGHT
 10
0.0
 20
0.0
 30
0.0
  9
$UCSORGFRONT
 10
0.0
 20
0.0
 30
0.0
  9
$UCSORGBACK
 10
0.0
 20
0.0
 30
0.0
  9
$PUCSBASE
  2

  9
$PUCSNAME
  2

  9
$PUCSORG
 10
0.0
 20
0.0
 30
0.0
  9
$PUCSXDIR
 10
1.0
 20
0.0
 30
0.0
  9
$PUCSYDIR
 10
0.0
 20
1.0
 30
0.0
  9
$PUCSORTHOREF
  2

  9
$PUCSORTHOVIEW
 70
     0
  9
$PUCSORGTOP
 10
0.0
 20
0.0
 30
0.0
  9
$PUCSORGBOTTOM
 10
0.0
 20
0.0
 30
0.0
  9
$PUCSORGLEFT
 10
0.0
 20
0.0
 30
0.0
  9
$PUCSORGRIGHT
 10
0.0
 20
0.0
 30
0.0
  9
$PUCSORGFRONT
 10
0.0
 20
0.0
 30
0.0
  9
$PUCSORGBACK
 10
0.0
 20
0.0
 30
0.0
  9
$USERI1
 70
     0
  9
$USERI2
 70
     0
  9
$USERI3
 70
     0
  9
$USERI4
 70
     0
  9
$USERI5
 70
     0
  9
$USERR1
 40
0.0
  9
$USERR2
 40
0.0
  9
$USERR3
 40
0.0
  9
$USERR4
 40
0.0
  9
$USERR5
 40
0.0
  9
$WORLDVIEW
 70
     1
  9
$SHADEDGE
 70
     3
  9
$SHADEDIF
 70
    70
  9
$TILEMODE
 70
     1
  9
$MAXACTVP
 70
    64
  9
$PINSBASE
 10
0.0
 20
0.0
 30
0.0
  9
$PLIMCHECK
 70
     0
  9
$PEXTMIN
 10
1.000000000000000E+20
 20
1.000000000000000E+20
 30
1.000000000000000E+20
  9
$PEXTMAX
 10
-1.000000000000000E+20
 20
-1.000000000000000E+20
 30
-1.000000000000000E+20
  9
$PLIMMIN
 10
0.0
 20
0.0
  9
$PLIMMAX
 10
420.0
 20
297.0
  9
$UNITMODE
 70
     0
  9
$VISRETAIN
 70
     1
  9
$PLINEGEN
 70
     0
  9
$PSLTSCALE
 70
     1
  9
$TREEDEPTH
 70
  3020
  9
$CMLSTYLE
  2
Standard
  9
$CMLJUST
 70
     0
  9
$CMLSCALE
 40
20.0
  9
$PROXYGRAPHICS
 70
     1
  9
$MEASUREMENT
 70
     1
  9
$CELWEIGHT
370
    -1
  9
$ENDCAPS
280
     0
  9
$JOINSTYLE
280
     0
  9
$LWDISPLAY
290
     0
  9
$INSUNITS
 70
     4
  9
$HYPERLINKBASE
  1

  9
$STYLESHEET
  1

  9
$XEDIT
290
     1
  9
$CEPSNTYPE
380
     0
  9
$PSTYLEMODE
290
     1
  9
$FINGERPRINTGUID
  2
{487E9A91-2DD3-42D3-B0DA-DA058065358F}
  9
$VERSIONGUID
  2
{94D13237-8065-488C-8367-E4CE3CD95AAF}
  9
$EXTNAMES
290
     1
  9
$PSVPSCALE
 40
0.0
  9
$OLESTARTUP
290
     0
  0
ENDSEC
  0
SECTION
  2
CLASSES
  0
CLASS
  1
ACDBDICTIONARYWDFLT
  2
AcDbDictionaryWithDefault
  3
ObjectDBX Classes
 90
        0
280
     0
281
     0
  0
CLASS
  1
TABLESTYLE
  2
AcDbTableStyle
  3
ObjectDBX Classes
 90
     2047
280
     0
281
     0
  0
CLASS
  1
DICTIONARYVAR
  2
AcDbDictionaryVar
  3
ObjectDBX Classes
 90
        0
280
     0
281
     0
  0
CLASS
  1
SORTENTSTABLE
  2
AcDbSortentsTable
  3
ObjectDBX Classes
 90
        0
280
     0
281
     0
  0
CLASS
  1
ACDBPLACEHOLDER
  2
AcDbPlaceHolder
  3
ObjectDBX Classes
 90
        0
280
     0
281
     0
  0
CLASS
  1
LAYOUT
  2
AcDbLayout
  3
ObjectDBX Classes
 90
        0
280
     0
281
     0
  0
ENDSEC
  0
SECTION
  2
TABLES
  0
TABLE
  2
VPORT
  5
8
330
0
100
AcDbSymbolTable
 70
    28
  0
VPORT
  5
271D
330
8
100
AcDbSymbolTableRecord
100
AcDbViewportTableRecord
  2
*Active
 70
     0
 10
0.0
 20
0.0
 11
1.0
 21
1.0
 12
202.6069371311513
 22
140.7978611244022
 13
0.0
 23
0.0
 14
10.0
 24
10.0
 15
10.0
 25
10.0
 16
0.0
 26
0.0
 36
1.0
 17
0.0
 27
0.0
 37
0.0
 40
0.6275418809258807
 41
1.593939393939393
 42
50.0
 43
0.0
 44
0.0
 50
0.0
 51
0.0
 71
     0
 72
  1000
 73
     1
 74
     3
 75
     0
 76
     0
 77
     0
 78
     0
281
     0
 65
     1
110
0.0
120
0.0
130
0.0
111
1.0
121
0.0
131
0.0
112
0.0
122
1.0
132
0.0
 79
     0
146
0.0
  0
ENDTAB
  0
TABLE
  2
LTYPE
  5
5
330
0
100
AcDbSymbolTable
 70
     2
  0
LTYPE
  5
14
330
5
100
AcDbSymbolTableRecord
100
AcDbLinetypeTableRecord
  2
ByBlock
 70
     0
  3

 72
    65
 73
     0
 40
0.0
  0
LTYPE
  5
15
330
5
100
AcDbSymbolTableRecord
100
AcDbLinetypeTableRecord
  2
ByLayer
 70
     0
  3

 72
    65
 73
     0
 40
0.0
  0
LTYPE
  5
16
330
5
100
AcDbSymbolTableRecord
100
AcDbLinetypeTableRecord
  2
Continuous
 70
     0
  3
Solid line
 72
    65
 73
     0
 40
0.0
  0
ENDTAB
  0
TABLE
  2
LAYER
  5
2
330
0
100
AcDbSymbolTable
 70
     2
  0
LAYER
  5
10
330
2
100
AcDbSymbolTableRecord
100
AcDbLayerTableRecord
  2
0
 70
     0
 62
     7
  6
Continuous
370
    -3
390
F
  0
LAYER
  5
878
330
2
100
AcDbSymbolTableRecord
100
AcDbLayerTableRecord
  2
sanindusa
 70
     0
 62
     3
  6
Continuous
370
    -3
390
F
  0
ENDTAB
  0
TABLE
  2
STYLE
  5
3
330
0
100
AcDbSymbolTable
 70
     1
  0
STYLE
  5
11
330
3
100
AcDbSymbolTableRecord
100
AcDbTextStyleTableRecord
  2
Standard
 70
     0
 40
0.0
 41
1.0
 50
0.0
 71
     0
 42
2.5
  3
txt
  4

  0
ENDTAB
  0
TABLE
  2
VIEW
  5
6
330
0
100
AcDbSymbolTable
 70
     0
  0
ENDTAB
  0
TABLE
  2
UCS
  5
7
330
0
100
AcDbSymbolTable
 70
     0
  0
ENDTAB
  0
TABLE
  2
APPID
  5
9
330
0
100
AcDbSymbolTable
 70
     2
  0
APPID
  5
12
330
9
100
AcDbSymbolTableRecord
100
AcDbRegAppTableRecord
  2
ACAD
 70
     0
  0
APPID
  5
860
330
9
100
AcDbSymbolTableRecord
100
AcDbRegAppTableRecord
  2
ACAD_EXEMPT_FROM_CAD_STANDARDS
 70
     0
  0
ENDTAB
  0
TABLE
  2
DIMSTYLE
  5
A
330
0
100
AcDbSymbolTable
 70
     2
100
AcDbDimStyleTable
 71
     1
340
2B
  0
DIMSTYLE
105
2B
330
A
100
AcDbSymbolTableRecord
100
AcDbDimStyleTableRecord
  2
ISO-25
 70
     0
 41
2.5
 42
0.625
 43
3.75
 44
1.25
 73
     0
 74
     0
 77
     1
 78
     8
140
2.5
141
2.5
143
0.03937007874016
147
0.625
171
     3
172
     1
271
     2
272
     2
274
     3
278
    44
283
     0
284
     8
340
11
  0
ENDTAB
  0
TABLE
  2
BLOCK_RECORD
  5
1
330
0
100
AcDbSymbolTable
 70
     8
  0
BLOCK_RECORD
  5
23
102
{ACAD_XDICTIONARY
360
86D
102
}
330
1
100
AcDbSymbolTableRecord
100
AcDbBlockTableRecord
  2
*Model_Space
340
26
  0
BLOCK_RECORD
  5
1F
330
1
100
AcDbSymbolTableRecord
100
AcDbBlockTableRecord
  2
*Paper_Space
340
22
  0
BLOCK_RECORD
  5
27
330
1
100
AcDbSymbolTableRecord
100
AcDbBlockTableRecord
  2
*Paper_Space0
340
2A
  0
ENDTAB
  0
ENDSEC
  0
SECTION
  2
BLOCKS
  0
BLOCK
  5
24
330
23
100
AcDbEntity
  8
0
100
AcDbBlockBegin
  2
*Model_Space
 70
     0
 10
0.0
 20
0.0
 30
0.0
  3
*Model_Space
  1

  0
ENDBLK
  5
25
330
23
100
AcDbEntity
  8
0
100
AcDbBlockEnd
  0
BLOCK
  5
20
330
1F
100
AcDbEntity
 67
     1
  8
0
100
AcDbBlockBegin
  2
*Paper_Space
 70
     0
 10
0.0
 20
0.0
 30
0.0
  3
*Paper_Space
  1

  0
ENDBLK
  5
21
330
1F
100
AcDbEntity
 67
     1
  8
0
100
AcDbBlockEnd
  0
BLOCK
  5
28
330
27
100
AcDbEntity
 67
     1
  8
0
100
AcDbBlockBegin
  2
*Paper_Space0
 70
     0
 10
0.0
 20
0.0
 30
0.0
  3
*Paper_Space0
  1

  0
ENDBLK
  5
29
330
27
100
AcDbEntity
 67
     1
  8
0
100
AcDbBlockEnd
  0
ENDSEC
  0
SECTION
  2
ENTITIES
  0
ARC
  5
2647
330
23
100
AcDbEntity
  8
sanindusa
100
AcDbCircle
 10
202.4806478811311
 20
140.64696304518
 30
0.0
 40
0.0002500000000001
100
AcDbArc
 50
180.0
 51
270.0
  0
ARC
  5
2648
330
23
100
AcDbEntity
  8
sanindusa
100
AcDbCircle
 10
202.5051478811311
 20
140.64696304518
 30
0.0
 40
0.00025
100
AcDbArc
 50
270.0
 51
0.0
  0
LINE
  5
2649
330
23
100
AcDbEntity
  8
sanindusa
100
AcDbLine
 10
202.5053978808079
 20
140.6469630463424
 30
0.0
 11
202.5053978808079
 21
140.6550272120538
 31
0.0
  0
LINE
  5
264A
330
23
100
AcDbEntity
  8
sanindusa
100
AcDbLine
 10
202.4803978813667
 20
140.6550272120538
 30
0.0
 11
202.4803978813667
 21
140.6469630463424
 31
0.0
  0
LINE
  5
264B
330
23
100
AcDbEntity
  8
sanindusa
100
AcDbLine
 10
202.5053978808079
 20
140.6550272120538
 30
0.0
 11
202.5053978808079
 21
140.7125272112342
 31
0.0
  0
LINE
  5
264C
330
23
100
AcDbEntity
  8
sanindusa
100
AcDbLine
 10
202.4803978813667
 20
140.7125272112342
 30
0.0
 11
202.4803978813667
 21
140.6550272120538
 31
0.0
  0
LINE
  5
264D
330
23
100
AcDbEntity
  8
sanindusa
100
AcDbLine
 10
202.4808978814486
 20
140.6457130438092
 30
0.0
 11
202.4808978814486
 21
140.6382130435112
 31
0.0
  0
LINE
  5
264E
330
23
100
AcDbEntity
  8
sanindusa
100
AcDbLine
 10
202.5048978807259
 20
140.6382130435112
 30
0.0
 11
202.5048978807259
 21
140.6457130438092
 31
0.0
  0
LINE
  5
264F
330
23
100
AcDbEntity
  8
sanindusa
100
AcDbLine
 10
202.4813978815306
 20
140.6467130458357
 30
0.0
 11
202.4813978815306
 21
140.6457130438092
 31
0.0
  0
LINE
  5
2650
330
23
100
AcDbEntity
  8
sanindusa
100
AcDbLine
 10
202.5043978815753
 20
140.6457130438092
 30
0.0
 11
202.5043978815753
 21
140.6467130458357
 31
0.0
  0
LINE
  5
2651
330
23
100
AcDbEntity
  8
sanindusa
100
AcDbLine
 10
202.5043978815753
 20
140.6377130462232
 30
0.0
 11
202.5048978807259
 21
140.6382130435112
 31
0.0
  0
LINE
  5
2652
330
23
100
AcDbEntity
  8
sanindusa
100
AcDbLine
 10
202.4808978814486
 20
140.6382130435112
 30
0.0
 11
202.4813978815306
 21
140.6377130462232
 31
0.0
  0
LINE
  5
2653
330
23
100
AcDbEntity
  8
sanindusa
100
AcDbLine
 10
202.4783978810388
 20
140.7755272141101
 30
0.0
 11
202.4783978810388
 21
140.6965272104742
 31
0.0
  0
LINE
  5
2654
330
23
100
AcDbEntity
  8
sanindusa
100
AcDbLine
 10
202.5073978811357
 20
140.6965272104742
 30
0.0
 11
202.5073978811357
 21
140.7755272141101
 31
0.0
  0
LINE
  5
2655
330
23
100
AcDbEntity
  8
sanindusa
100
AcDbLine
 10
202.487897881199
 20
140.8385851955416
 30
0.0
 11
202.487897881199
 21
140.7900272136929
 31
0.0
  0
LINE
  5
2656
330
23
100
AcDbEntity
  8
sanindusa
100
AcDbLine
 10
202.4978978809755
 20
140.7900272136929
 30
0.0
 11
202.4978978809755
 21
140.8385762399437
 31
0.0
  0
LINE
  5
2657
330
23
100
AcDbEntity
  8
sanindusa
100
AcDbLine
 10
202.4928978811309
 20
140.6467130458357
 30
0.0
 11
202.5051478812326
 21
140.6467130458357
 31
0.0
  0
LINE
  5
2658
330
23
100
AcDbEntity
  8
sanindusa
100
AcDbLine
 10
202.480647880942
 20
140.6467130458357
 30
0.0
 11
202.4928978811309
 21
140.6467130458357
 31
0.0
  0
ARC
  5
2659
330
23
100
AcDbEntity
  8
sanindusa
100
AcDbCircle
 10
202.4928978811311
 20
140.7125272104742
 30
0.0
 40
0.0125
100
AcDbArc
 50
0.0
 51
180.0
  0
LINE
  5
265A
330
23
100
AcDbEntity
  8
sanindusa
100
AcDbLine
 10
202.4881020494591
 20
140.6382130435112
 30
0.0
 11
202.4808978814486
 21
140.6382130435112
 31
0.0
  0
LINE
  5
265B
330
23
100
AcDbEntity
  8
sanindusa
100
AcDbLine
 10
202.5048978807259
 20
140.6382130435112
 30
0.0
 11
202.4976937127154
 21
140.6382130435112
 31
0.0
  0
LINE
  5
265C
330
23
100
AcDbEntity
  8
sanindusa
100
AcDbLine
 10
202.4976937127154
 20
140.6407130448523
 30
0.0
 11
202.4976937127154
 21
140.6382130435112
 31
0.0
  0
LINE
  5
265D
330
23
100
AcDbEntity
  8
sanindusa
100
AcDbLine
 10
202.4881020494591
 20
140.6382130435112
 30
0.0
 11
202.4881020494591
 21
140.6407130448523
 31
0.0
  0
LINE
  5
265E
330
23
100
AcDbEntity
  8
sanindusa
100
AcDbLine
 10
202.4881020494591
 20
140.6407130448523
 30
0.0
 11
202.4976937127154
 21
140.6407130448523
 31
0.0
  0
LINE
  5
265F
330
23
100
AcDbEntity
  8
sanindusa
100
AcDbLine
 10
202.4928978811309
 20
140.6457130438092
 30
0.0
 11
202.4808978814486
 21
140.6457130438092
 31
0.0
  0
LINE
  5
2660
330
23
100
AcDbEntity
  8
sanindusa
100
AcDbLine
 10
202.5048978807259
 20
140.6457130438092
 30
0.0
 11
202.4928978811309
 21
140.6457130438092
 31
0.0
  0
LINE
  5
2661
330
23
100
AcDbEntity
  8
sanindusa
100
AcDbLine
 10
202.4962519829947
 20
140.6377130462232
 30
0.0
 11
202.5043978815753
 21
140.6377130462232
 31
0.0
  0
LINE
  5
2662
330
23
100
AcDbEntity
  8
sanindusa
100
AcDbLine
 10
202.4976937127154
 20
140.6382130435112
 30
0.0
 11
202.4962519829947
 21
140.6377130462232
 31
0.0
  0
LINE
  5
2663
330
23
100
AcDbEntity
  8
sanindusa
100
AcDbLine
 10
202.4895437791798
 20
140.6377130462232
 30
0.0
 11
202.4962519829947
 21
140.6377130462232
 31
0.0
  0
LINE
  5
2664
330
23
100
AcDbEntity
  8
sanindusa
100
AcDbLine
 10
202.4895437791798
 20
140.6377130462232
 30
0.0
 11
202.4881020494591
 21
140.6382130435112
 31
0.0
  0
LINE
  5
2665
330
23
100
AcDbEntity
  8
sanindusa
100
AcDbLine
 10
202.4813978815306
 20
140.6377130462232
 30
0.0
 11
202.4895437791798
 21
140.6377130462232
 31
0.0
  0
LINE
  5
2666
330
23
100
AcDbEntity
  8
sanindusa
100
AcDbLine
 10
202.5073978811357
 20
140.7755272141101
 30
0.0
 11
202.4783978810388
 21
140.7755272141101
 31
0.0
  0
LINE
  5
2667
330
23
100
AcDbEntity
  8
sanindusa
100
AcDbLine
 10
202.5053978808079
 20
140.6965272104742
 30
0.0
 11
202.5073978811357
 21
140.6965272104742
 31
0.0
  0
LINE
  5
2668
330
23
100
AcDbEntity
  8
sanindusa
100
AcDbLine
 10
202.4783978810388
 20
140.6965272104742
 30
0.0
 11
202.4803978813667
 21
140.6965272104742
 31
0.0
  0
CIRCLE
  5
2669
330
23
100
AcDbEntity
  8
sanindusa
100
AcDbCircle
 10
-202.4928978811311
 20
140.8605272104742
 30
-0.0000000000000332
 40
0.0224999999999999
210
-0.0000000000000002
220
0.0
230
-1.0
  0
LINE
  5
266A
330
23
100
AcDbEntity
  8
sanindusa
100
AcDbLine
 10
202.4928978811309
 20
140.7900272136929
 30
0.0
 11
202.4978978809755
 21
140.7900272136929
 31
0.0
  0
LINE
  5
266B
330
23
100
AcDbEntity
  8
sanindusa
100
AcDbLine
 10
202.487897881199
 20
140.7900272136929
 30
0.0
 11
202.4928978811309
 21
140.7900272136929
 31
0.0
  0
ARC
  5
266C
330
23
100
AcDbEntity
  8
sanindusa
100
AcDbCircle
 10
202.4928978806216
 20
140.7605272097888
 30
0.0
 40
0.0222500003874307
100
AcDbArc
 50
0.0
 51
180.0
  0
LINE
  5
266F
330
23
100
AcDbEntity
  8
sanindusa
100
AcDbLine
 10
202.4598978808004
 20
140.720055074841
 30
0.0
 11
202.4578978804726
 21
140.720055074841
 31
0.0
  0
CIRCLE
  5
2671
330
23
100
AcDbEntity
  8
sanindusa
100
AcDbCircle
 10
202.4588978811311
 20
140.7245272104742
 30
0.0
 40
0.00575
  0
LINE
  5
2672
330
23
100
AcDbEntity
  8
sanindusa
100
AcDbLine
 10
202.4578978804726
 20
140.728999347836
 30
0.0
 11
202.4598978808004
 21
140.728999347836
 31
0.0
  0
LINE
  5
2673
330
23
100
AcDbEntity
  8
sanindusa
100
AcDbLine
 10
202.4578978804726
 20
140.720055074841
 30
0.0
 11
202.4578978804726
 21
140.728999347836
 31
0.0
  0
LINE
  5
2674
330
23
100
AcDbEntity
  8
sanindusa
100
AcDbLine
 10
202.4598978808004
 20
140.728999347836
 30
0.0
 11
202.4598978808004
 21
140.720055074841
 31
0.0
  0
LINE
  5
2676
330
23
100
AcDbEntity
  8
sanindusa
100
AcDbLine
 10
202.4403978822607
 20
140.9155272072556
 30
0.0
 11
202.5453978827078
 21
140.9155272072556
 31
0.0
  0
LINE
  5
2677
330
23
100
AcDbEntity
  8
sanindusa
100
AcDbLine
 10
202.5453978827078
 20
140.9155272072556
 30
0.0
 11
202.5453978827078
 21
140.7055272100868
 31
0.0
  0
LINE
  5
2678
330
23
100
AcDbEntity
  8
sanindusa
100
AcDbLine
 10
202.5453978827078
 20
140.7055272100868
 30
0.0
 11
202.5073978811357
 21
140.7055272100868
 31
0.0
  0
LINE
  5
2679
330
23
100
AcDbEntity
  8
sanindusa
100
AcDbLine
 10
202.4783978810388
 20
140.7055272100868
 30
0.0
 11
202.4403978822607
 21
140.7055272100868
 31
0.0
  0
LINE
  5
267A
330
23
100
AcDbEntity
  8
sanindusa
100
AcDbLine
 10
202.4403978822607
 20
140.7055272100868
 30
0.0
 11
202.4403978822607
 21
140.9155272072556
 31
0.0
  0
CIRCLE
  5
267B
330
23
100
AcDbEntity
  8
sanindusa
100
AcDbCircle
 10
202.5268978811311
 20
140.7245272104742
 30
0.0
 40
0.00585
  0
CIRCLE
  5
267D
330
23
100
AcDbEntity
  8
sanindusa
100
AcDbCircle
 10
202.5268978811311
 20
140.8965272104742
 30
0.0
 40
0.0058499999999999
  0
CIRCLE
  5
267E
330
23
100
AcDbEntity
  8
sanindusa
100
AcDbCircle
 10
202.4588978811311
 20
140.8965272104742
 30
0.0
 40
0.0058500000000001
  0
LINE
  5
2680
330
23
100
AcDbEntity
  8
sanindusa
100
AcDbLine
 10
202.5258978804428
 20
140.728999347836
 30
0.0
 11
202.5278978807707
 21
140.728999347836
 31
0.0
  0
LINE
  5
2681
330
23
100
AcDbEntity
  8
sanindusa
100
AcDbLine
 10
202.5258978804428
 20
140.720055074841
 30
0.0
 11
202.5258978804428
 21
140.728999347836
 31
0.0
  0
LINE
  5
2682
330
23
100
AcDbEntity
  8
sanindusa
100
AcDbLine
 10
202.5278978807707
 20
140.720055074841
 30
0.0
 11
202.5258978804428
 21
140.720055074841
 31
0.0
  0
LINE
  5
2683
330
23
100
AcDbEntity
  8
sanindusa
100
AcDbLine
 10
202.5278978807707
 20
140.728999347836
 30
0.0
 11
202.5278978807707
 21
140.720055074841
 31
0.0
  0
LINE
  5
2686
330
23
100
AcDbEntity
  8
sanindusa
100
AcDbLine
 10
202.4578978804726
 20
140.900999349952
 30
0.0
 11
202.4598978808004
 21
140.900999349952
 31
0.0
  0
LINE
  5
2687
330
23
100
AcDbEntity
  8
sanindusa
100
AcDbLine
 10
202.4578978804726
 20
140.892055076957
 30
0.0
 11
202.4578978804726
 21
140.900999349952
 31
0.0
  0
LINE
  5
2688
330
23
100
AcDbEntity
  8
sanindusa
100
AcDbLine
 10
202.4598978808004
 20
140.892055076957
 30
0.0
 11
202.4578978804726
 21
140.892055076957
 31
0.0
  0
LINE
  5
2689
330
23
100
AcDbEntity
  8
sanindusa
100
AcDbLine
 10
202.4598978808004
 20
140.900999349952
 30
0.0
 11
202.4598978808004
 21
140.892055076957
 31
0.0
  0
LINE
  5
268B
330
23
100
AcDbEntity
  8
sanindusa
100
AcDbLine
 10
202.5258978804428
 20
140.900999349952
 30
0.0
 11
202.5278978807707
 21
140.900999349952
 31
0.0
  0
LINE
  5
268C
330
23
100
AcDbEntity
  8
sanindusa
100
AcDbLine
 10
202.5258978804428
 20
140.892055076957
 30
0.0
 11
202.5258978804428
 21
140.900999349952
 31
0.0
  0
LINE
  5
268D
330
23
100
AcDbEntity
  8
sanindusa
100
AcDbLine
 10
202.5278978807707
 20
140.892055076957
 30
0.0
 11
202.5258978804428
 21
140.892055076957
 31
0.0
  0
LINE
  5
268E
330
23
100
AcDbEntity
  8
sanindusa
100
AcDbLine
 10
202.5278978807707
 20
140.900999349952
 30
0.0
 11
202.5278978807707
 21
140.892055076957
 31
0.0
  0
ARC
  5
2697
330
23
100
AcDbEntity
  8
sanindusa
100
AcDbCircle
 10
202.4920374889702
 20
140.7602709183535
 30
0.0
 40
0.021391144174385
100
AcDbArc
 50
179.3135017811062
 51
230.3847742941207
  0
ARC
  5
2698
330
23
100
AcDbEntity
  8
sanindusa
100
AcDbCircle
 10
202.4935484951753
 20
140.7603680666172
 30
0.0
 40
0.0215999721326466
100
AcDbArc
 50
309.8795745569207
 51
0.4221546194967292
  0
LINE
  5
2699
330
23
100
AcDbEntity
  8
sanindusa
100
AcDbLine
 10
202.1306805025706
 20
140.9460092029426
 30
0.0
 11
202.1301978018054
 21
140.9465844636675
 31
0.0
  0
LINE
  5
269A
330
23
100
AcDbEntity
  8
sanindusa
100
AcDbLine
 10
202.124197800822
 20
140.9465844636675
 30
0.0
 11
202.1237151000568
 21
140.9460092029426
 31
0.0
  0
LINE
  5
269B
330
23
100
AcDbEntity
  8
sanindusa
100
AcDbLine
 10
202.1986805025408
 20
140.9460092029426
 30
0.0
 11
202.1981978017756
 21
140.9465844636675
 31
0.0
  0
LINE
  5
269C
330
23
100
AcDbEntity
  8
sanindusa
100
AcDbLine
 10
202.1921978026548
 20
140.9465844636675
 30
0.0
 11
202.191715100027
 21
140.9460092029426
 31
0.0
  0
LINE
  5
269D
330
23
100
AcDbEntity
  8
sanindusa
100
AcDbLine
 10
202.1921978026548
 20
140.9580092025813
 30
0.0
 11
202.1921978026548
 21
140.9465844636675
 31
0.0
  0
LINE
  5
269E
330
23
100
AcDbEntity
  8
sanindusa
100
AcDbLine
 10
202.1981978017756
 20
140.9465844636675
 30
0.0
 11
202.1981978017756
 21
140.9580092025813
 31
0.0
  0
LINE
  5
269F
330
23
100
AcDbEntity
  8
sanindusa
100
AcDbLine
 10
202.124197800822
 20
140.9580092025813
 30
0.0
 11
202.124197800822
 21
140.9465844636675
 31
0.0
  0
LINE
  5
26A0
330
23
100
AcDbEntity
  8
sanindusa
100
AcDbLine
 10
202.1301978018054
 20
140.9465844636675
 30
0.0
 11
202.1301978018054
 21
140.9580092025813
 31
0.0
  0
LINE
  5
26A1
330
23
100
AcDbEntity
  8
sanindusa
100
AcDbLine
 10
202.1386978022674
 20
140.9550092030209
 30
0.0
 11
202.1386978022674
 21
140.9460092029426
 31
0.0
  0
LINE
  5
26A2
330
23
100
AcDbEntity
  8
sanindusa
100
AcDbLine
 10
202.1836978021929
 20
140.9460092029426
 30
0.0
 11
202.1836978021929
 21
140.9550092030209
 31
0.0
  0
LINE
  5
26A3
330
23
100
AcDbEntity
  8
sanindusa
100
AcDbLine
 10
202.1836978021929
 20
140.9036279298257
 30
0.0
 11
202.1836978021929
 21
140.9430092029166
 31
0.0
  0
LINE
  5
26A4
330
23
100
AcDbEntity
  8
sanindusa
100
AcDbLine
 10
202.1386978022674
 20
140.9430092029166
 30
0.0
 11
202.1386978022674
 21
140.9036279298257
 31
0.0
  0
LINE
  5
26A5
330
23
100
AcDbEntity
  8
sanindusa
100
AcDbLine
 10
202.1836978021929
 20
140.871809204657
 30
0.0
 11
202.1836978021929
 21
140.8988092034947
 31
0.0
  0
LINE
  5
26A6
330
23
100
AcDbEntity
  8
sanindusa
100
AcDbLine
 10
202.1386978022674
 20
140.8988092034947
 30
0.0
 11
202.1386978022674
 21
140.871809204657
 31
0.0
  0
ARC
  5
26A7
330
23
100
AcDbEntity
  8
sanindusa
100
AcDbCircle
 10
202.1816978018082
 20
140.9036279304407
 30
0.0
 40
0.0020000000000001
100
AcDbArc
 50
325.6196553151997
 51
0.0
  0
ARC
  5
26A8
330
23
100
AcDbEntity
  8
sanindusa
100
AcDbCircle
 10
202.1406978018082
 20
140.9036279304407
 30
0.0
 40
0.0020000000000001
100
AcDbArc
 50
180.0
 51
214.3803446848003
  0
LINE
  5
26A9
330
23
100
AcDbEntity
  8
sanindusa
100
AcDbLine
 10
202.1390471879312
 20
140.9024985633683
 30
0.0
 11
202.1415714856157
 21
140.8988092034947
 31
0.0
  0
LINE
  5
26AA
330
23
100
AcDbEntity
  8
sanindusa
100
AcDbLine
 10
202.1808241169819
 20
140.8988092034947
 30
0.0
 11
202.183348416529
 21
140.9024985633683
 31
0.0
  0
LINE
  5
26AB
330
23
100
AcDbEntity
  8
sanindusa
100
AcDbLine
 10
202.1736978014851
 20
140.7220092020821
 30
0.0
 11
202.1736978014851
 21
140.871809204657
 31
0.0
  0
LINE
  5
26AC
330
23
100
AcDbEntity
  8
sanindusa
100
AcDbLine
 10
202.1486978020438
 20
140.871809204657
 30
0.0
 11
202.1486978020438
 21
140.7220092020821
 31
0.0
  0
LINE
  5
26AD
330
23
100
AcDbEntity
  8
sanindusa
100
AcDbLine
 10
202.1736978014851
 20
140.6645092122149
 30
0.0
 11
202.1736978014851
 21
140.7220092020821
 31
0.0
  0
LINE
  5
26AE
330
23
100
AcDbEntity
  8
sanindusa
100
AcDbLine
 10
202.1486978020438
 20
140.7220092020821
 30
0.0
 11
202.1486978020438
 21
140.6645092122149
 31
0.0
  0
LINE
  5
26AF
330
23
100
AcDbEntity
  8
sanindusa
100
AcDbLine
 10
202.1086978029379
 20
140.9430092029166
 30
0.0
 11
202.213697803385
 21
140.9430092029166
 31
0.0
  0
LINE
  5
26B0
330
23
100
AcDbEntity
  8
sanindusa
100
AcDbLine
 10
202.213697803385
 20
140.9430092029166
 30
0.0
 11
202.213697803385
 21
140.9460092029426
 31
0.0
  0
LINE
  5
26B1
330
23
100
AcDbEntity
  8
sanindusa
100
AcDbLine
 10
202.1086978029379
 20
140.9460092029426
 30
0.0
 11
202.213697803385
 21
140.9460092029426
 31
0.0
  0
LINE
  5
26B2
330
23
100
AcDbEntity
  8
sanindusa
100
AcDbLine
 10
202.1086978029379
 20
140.9430092029166
 30
0.0
 11
202.1086978029379
 21
140.9460092029426
 31
0.0
  0
LINE
  5
26B3
330
23
100
AcDbEntity
  8
sanindusa
100
AcDbLine
 10
202.1271978031763
 20
140.9465844636675
 30
0.0
 11
202.1301978018054
 21
140.9465844636675
 31
0.0
  0
LINE
  5
26B4
330
23
100
AcDbEntity
  8
sanindusa
100
AcDbLine
 10
202.124197800822
 20
140.9465844636675
 30
0.0
 11
202.1271978031763
 21
140.9465844636675
 31
0.0
  0
LINE
  5
26B5
330
23
100
AcDbEntity
  8
sanindusa
100
AcDbLine
 10
202.1951978031465
 20
140.9465844636675
 30
0.0
 11
202.1981978017756
 21
140.9465844636675
 31
0.0
  0
LINE
  5
26B6
330
23
100
AcDbEntity
  8
sanindusa
100
AcDbLine
 10
202.1921978026548
 20
140.9465844636675
 30
0.0
 11
202.1951978031465
 21
140.9465844636675
 31
0.0
  0
LINE
  5
26B7
330
23
100
AcDbEntity
  8
sanindusa
100
AcDbLine
 10
202.1951978031465
 20
140.9580092025813
 30
0.0
 11
202.1921978026548
 21
140.9580092025813
 31
0.0
  0
LINE
  5
26B8
330
23
100
AcDbEntity
  8
sanindusa
100
AcDbLine
 10
202.1981978017756
 20
140.9580092025813
 30
0.0
 11
202.1951978031465
 21
140.9580092025813
 31
0.0
  0
LINE
  5
26B9
330
23
100
AcDbEntity
  8
sanindusa
100
AcDbLine
 10
202.1271978031763
 20
140.9580092025813
 30
0.0
 11
202.124197800822
 21
140.9580092025813
 31
0.0
  0
LINE
  5
26BA
330
23
100
AcDbEntity
  8
sanindusa
100
AcDbLine
 10
202.1301978018054
 20
140.9580092025813
 30
0.0
 11
202.1271978031763
 21
140.9580092025813
 31
0.0
  0
LINE
  5
26BB
330
23
100
AcDbEntity
  8
sanindusa
100
AcDbLine
 10
202.1836978021929
 20
140.9550092030209
 30
0.0
 11
202.1386978022674
 21
140.9550092030209
 31
0.0
  0
ELLIPSE
  5
26BC
330
23
100
AcDbEntity
  8
sanindusa
100
AcDbEllipse
 10
202.1611978018083
 20
140.8988092029166
 30
0.0
 11
0.0160000000032569
 21
0.0
 31
0.0
210
0.0
220
0.0
230
1.0
 40
0.3555555555555565
 41
4.340494570493228
 42
5.084283390276165
  0
ELLIPSE
  5
26BD
330
23
100
AcDbEntity
  8
sanindusa
100
AcDbEllipse
 10
202.1611978018083
 20
140.9006136250892
 30
0.0
 11
0.020234204012948
 21
0.0
 31
0.0
210
0.0
220
0.0
230
1.0
 40
0.3665682202621983
 41
5.00383752635648
 42
6.037444592187828
  0
LINE
  5
26BE
330
23
100
AcDbEntity
  8
sanindusa
100
AcDbLine
 10
202.1836978021929
 20
140.8988092034947
 30
0.0
 11
202.1808241169819
 21
140.8988092034947
 31
0.0
  0
ELLIPSE
  5
26BF
330
23
100
AcDbEntity
  8
sanindusa
100
AcDbEllipse
 10
202.1611978018083
 20
140.8988092029166
 30
0.0
 11
0.0225
 21
0.0
 31
0.0
210
0.0
220
0.0
230
1.0
 40
0.3555555555555574
 41
3.141592653589841
 42
6.283185307179586
  0
LINE
  5
26C0
330
23
100
AcDbEntity
  8
sanindusa
100
AcDbLine
 10
202.1415714856157
 20
140.8988092034947
 30
0.0
 11
202.1386978022674
 21
140.8988092034947
 31
0.0
  0
ELLIPSE
  5
26C1
330
23
100
AcDbEntity
  8
sanindusa
100
AcDbEllipse
 10
202.1611978018083
 20
140.9006136250892
 30
0.0
 11
0.020234204012948
 21
0.0
 31
0.0
210
0.0
220
0.0
230
1.0
 40
0.3665682202621983
 41
3.387333368581631
 42
4.42094043441291
  0
LINE
  5
26C2
330
23
100
AcDbEntity
  8
sanindusa
100
AcDbLine
 10
202.1386978022674
 20
140.871809204657
 30
0.0
 11
202.1836978021929
 21
140.871809204657
 31
0.0
  0
ARC
  5
26C4
330
23
100
AcDbEntity
  8
sanindusa
100
AcDbCircle
 10
202.1611978018083
 20
140.8825092029166
 30
0.0
 40
0.0145
100
AcDbArc
 50
227.5554684169051
 51
312.4445315830949
  0
ARC
  5
26C5
330
23
100
AcDbEntity
  8
sanindusa
100
AcDbCircle
 10
202.1611978018083
 20
140.6645092029166
 30
0.0
 40
0.0125
100
AcDbArc
 50
270.0
 51
0.0
  0
ARC
  5
26C6
330
23
100
AcDbEntity
  8
sanindusa
100
AcDbCircle
 10
202.1611978018083
 20
140.6645092029166
 30
0.0
 40
0.0125000000000001
100
AcDbArc
 50
180.0
 51
270.0
  0
LINE
  5
26C7
330
23
100
AcDbEntity
  8
sanindusa
100
AcDbLine
 10
202.1386978022674
 20
140.9036279298257
 30
0.0
 11
202.1836978021929
 21
140.9036279298257
 31
0.0
  0
LINE
  5
26CA
330
23
100
AcDbEntity
  8
sanindusa
100
AcDbLine
 10
202.8111764507555
 20
140.9000099128487
 30
0.0
 11
202.8106011900307
 21
140.899527204633
 31
0.0
  0
LINE
  5
26CB
330
23
100
AcDbEntity
  8
sanindusa
100
AcDbLine
 10
202.8106011900307
 20
140.8935272073748
 30
0.0
 11
202.8111764507555
 21
140.8930445140603
 31
0.0
  0
LINE
  5
26CC
330
23
100
AcDbEntity
  8
sanindusa
100
AcDbLine
 10
202.8111764507555
 20
140.7280099107327
 30
0.0
 11
202.8106011900307
 21
140.7275272099676
 31
0.0
  0
LINE
  5
26CD
330
23
100
AcDbEntity
  8
sanindusa
100
AcDbLine
 10
202.8106011900307
 20
140.7215272108468
 30
0.0
 11
202.8111764507555
 21
140.7210445100816
 31
0.0
  0
LINE
  5
26CE
330
23
100
AcDbEntity
  8
sanindusa
100
AcDbLine
 10
202.7991764511169
 20
140.7215272108468
 30
0.0
 11
202.8106011900307
 21
140.7215272108468
 31
0.0
  0
LINE
  5
26CF
330
23
100
AcDbEntity
  8
sanindusa
100
AcDbLine
 10
202.8106011900307
 20
140.7275272099676
 30
0.0
 11
202.7991764511169
 21
140.7275272099676
 31
0.0
  0
LINE
  5
26D0
330
23
100
AcDbEntity
  8
sanindusa
100
AcDbLine
 10
202.7991764511169
 20
140.8935272073748
 30
0.0
 11
202.8106011900307
 21
140.8935272073748
 31
0.0
  0
LINE
  5
26D1
330
23
100
AcDbEntity
  8
sanindusa
100
AcDbLine
 10
202.8106011900307
 20
140.899527204633
 30
0.0
 11
202.7991764511169
 21
140.899527204633
 31
0.0
  0
ARC
  5
26D2
330
23
100
AcDbEntity
  8
sanindusa
100
AcDbCircle
 10
202.8409264507816
 20
140.7382772104742
 30
0.0
 40
0.0002500000000002
100
AcDbArc
 50
270.0
 51
0.0
  0
ARC
  5
26D3
330
23
100
AcDbEntity
  8
sanindusa
100
AcDbCircle
 10
202.8409264507816
 20
140.7827772104742
 30
0.0
 40
0.0002500000000002
100
AcDbArc
 50
0.0
 51
90.0
  0
LINE
  5
26D4
330
23
100
AcDbEntity
  8
sanindusa
100
AcDbLine
 10
202.8021764506773
 20
140.8380272066596
 30
0.0
 11
202.8111764507555
 21
140.8380272066596
 31
0.0
  0
LINE
  5
26D5
330
23
100
AcDbEntity
  8
sanindusa
100
AcDbLine
 10
202.8111764507555
 20
140.8830272084477
 30
0.0
 11
202.8021764506773
 21
140.8830272084477
 31
0.0
  0
LINE
  5
26D6
330
23
100
AcDbEntity
  8
sanindusa
100
AcDbLine
 10
202.8409264509754
 20
140.7830272069576
 30
0.0
 11
202.8141764507816
 21
140.7830272069576
 31
0.0
  0
LINE
  5
26D7
330
23
100
AcDbEntity
  8
sanindusa
100
AcDbLine
 10
202.8141764507816
 20
140.7380272088947
 30
0.0
 11
202.8409264509754
 21
140.7380272088947
 31
0.0
  0
LINE
  5
26D8
330
23
100
AcDbEntity
  8
sanindusa
100
AcDbLine
 10
202.8535577238725
 20
140.8830272084477
 30
0.0
 11
202.8141764507816
 21
140.8830272084477
 31
0.0
  0
LINE
  5
26D9
330
23
100
AcDbEntity
  8
sanindusa
100
AcDbLine
 10
202.8141764507816
 20
140.8380272066596
 30
0.0
 11
202.8535577238725
 21
140.8380272066596
 31
0.0
  0
LINE
  5
26DA
330
23
100
AcDbEntity
  8
sanindusa
100
AcDbLine
 10
202.8853764490412
 20
140.8830272084477
 30
0.0
 11
202.8663764515147
 21
140.8830272084477
 31
0.0
  0
LINE
  5
26DB
330
23
100
AcDbEntity
  8
sanindusa
100
AcDbLine
 10
202.8793106035517
 20
140.8380272066596
 30
0.0
 11
202.8853764490412
 21
140.8380272066596
 31
0.0
  0
LINE
  5
26DC
330
23
100
AcDbEntity
  8
sanindusa
100
AcDbLine
 10
202.8583764502034
 20
140.8380272066596
 30
0.0
 11
202.8693764501439
 21
140.8380272066596
 31
0.0
  0
ARC
  5
26DD
330
23
100
AcDbEntity
  8
sanindusa
100
AcDbCircle
 10
202.8535577232575
 20
140.8810272104743
 30
0.0
 40
0.0020000000000001
100
AcDbArc
 50
55.61965531520197
 51
90.0
  0
ARC
  5
26DE
330
23
100
AcDbEntity
  8
sanindusa
100
AcDbCircle
 10
202.8535577232575
 20
140.8400272104742
 30
0.0
 40
0.0019999999999999
100
AcDbArc
 50
270.0
 51
304.380344684798
  0
LINE
  5
26DF
330
23
100
AcDbEntity
  8
sanindusa
100
AcDbLine
 10
202.8546870903299
 20
140.8383765941861
 30
0.0
 11
202.8583764502034
 21
140.8409008955958
 31
0.0
  0
LINE
  5
26E0
330
23
100
AcDbEntity
  8
sanindusa
100
AcDbLine
 10
202.8636764505134
 20
140.8765272176268
 30
0.0
 11
202.8546870903299
 21
140.8826778209212
 31
0.0
  0
LINE
  5
26E1
330
23
100
AcDbEntity
  8
sanindusa
100
AcDbLine
 10
202.860176450871
 20
140.7482377639415
 30
0.0
 11
202.860176450871
 21
140.6965272104742
 31
0.0
  0
LINE
  5
26E2
330
23
100
AcDbEntity
  8
sanindusa
100
AcDbLine
 10
202.860176450871
 20
140.7755272141101
 30
0.0
 11
202.860176450871
 21
140.7728117978575
 31
0.0
  0
LINE
  5
26E3
330
23
100
AcDbEntity
  8
sanindusa
100
AcDbLine
 10
202.8891764537618
 20
140.7249244297298
 30
0.0
 11
202.8891764537618
 21
140.7755272141101
 31
0.0
  0
LINE
  5
26E4
330
23
100
AcDbEntity
  8
sanindusa
100
AcDbLine
 10
202.8891764537618
 20
140.6965272104742
 30
0.0
 11
202.8891764537618
 21
140.7000272105823
 31
0.0
  0
ARC
  5
26E5
330
23
100
AcDbEntity
  8
sanindusa
100
AcDbCircle
 10
203.0804264507816
 20
140.64696304518
 30
0.0
 40
0.0002500000000001
100
AcDbArc
 50
180.0
 51
270.0
  0
ARC
  5
26E6
330
23
100
AcDbEntity
  8
sanindusa
100
AcDbCircle
 10
203.1049264507816
 20
140.64696304518
 30
0.0
 40
0.0002500000000001
100
AcDbArc
 50
270.0
 51
0.0
  0
LINE
  5
26E7
330
23
100
AcDbEntity
  8
sanindusa
100
AcDbLine
 10
203.0351764516161
 20
140.7250272104892
 30
0.0
 11
202.8890880228207
 21
140.7250272104892
 31
0.0
  0
LINE
  5
26E8
330
23
100
AcDbEntity
  8
sanindusa
100
AcDbLine
 10
202.8891764537618
 20
140.7000272105823
 30
0.0
 11
203.0351764516161
 21
140.7000272105823
 31
0.0
  0
ARC
  5
26E9
330
23
100
AcDbEntity
  8
sanindusa
100
AcDbCircle
 10
203.0351764507816
 20
140.6550272104743
 30
0.0
 40
0.07
100
AcDbArc
 50
0.0
 51
90.0
  0
ARC
  5
26EA
330
23
100
AcDbEntity
  8
sanindusa
100
AcDbCircle
 10
203.0351764507816
 20
140.6550272104743
 30
0.0
 40
0.045
100
AcDbArc
 50
0.0
 51
90.0
  0
LINE
  5
26EB
330
23
100
AcDbEntity
  8
sanindusa
100
AcDbLine
 10
203.1051764593647
 20
140.6469630463424
 30
0.0
 11
203.1051764593647
 21
140.6550272120538
 31
0.0
  0
LINE
  5
26EC
330
23
100
AcDbEntity
  8
sanindusa
100
AcDbLine
 10
203.0801764534042
 20
140.6550272120538
 30
0.0
 11
203.0801764534042
 21
140.6469630463424
 31
0.0
  0
LINE
  5
26ED
330
23
100
AcDbEntity
  8
sanindusa
100
AcDbLine
 10
202.841176451482
 20
140.7481272122266
 30
0.0
 11
202.8602707565949
 21
140.7481272122266
 31
0.0
  0
LINE
  5
26EE
330
23
100
AcDbEntity
  8
sanindusa
100
AcDbLine
 10
202.8602750108765
 20
140.772927207351
 30
0.0
 11
202.841176451482
 21
140.772927207351
 31
0.0
  0
LINE
  5
26EF
330
23
100
AcDbEntity
  8
sanindusa
100
AcDbLine
 10
203.0806764469669
 20
140.6457130438092
 30
0.0
 11
203.0806764469669
 21
140.6407130448523
 31
0.0
  0
LINE
  5
26F0
330
23
100
AcDbEntity
  8
sanindusa
100
AcDbLine
 10
203.1046764359996
 20
140.6407130448523
 30
0.0
 11
203.1046764359996
 21
140.6457130438092
 31
0.0
  0
LINE
  5
26F1
330
23
100
AcDbEntity
  8
sanindusa
100
AcDbLine
 10
203.0811764405296
 20
140.6467130458357
 30
0.0
 11
203.0811764405296
 21
140.6457130438092
 31
0.0
  0
LINE
  5
26F2
330
23
100
AcDbEntity
  8
sanindusa
100
AcDbLine
 10
203.104176442437
 20
140.6457130438092
 30
0.0
 11
203.104176442437
 21
140.6467130458357
 31
0.0
  0
LINE
  5
26F3
330
23
100
AcDbEntity
  8
sanindusa
100
AcDbLine
 10
202.8640653410182
 20
140.8765272176268
 30
0.0
 11
202.8636764505134
 21
140.8765272176268
 31
0.0
  0
LINE
  5
26F4
330
23
100
AcDbEntity
  8
sanindusa
100
AcDbLine
 10
202.8693764501439
 20
140.8380272066596
 30
0.0
 11
202.8693764501439
 21
140.7900272136929
 31
0.0
  0
LINE
  5
26F5
330
23
100
AcDbEntity
  8
sanindusa
100
AcDbLine
 10
202.879376451783
 20
140.7900272136929
 30
0.0
 11
202.879376451783
 21
140.8380417203906
 31
0.0
  0
LINE
  5
26F6
330
23
100
AcDbEntity
  8
sanindusa
100
AcDbLine
 10
202.8141764507816
 20
140.9155272072556
 30
0.0
 11
202.8111764507555
 21
140.9155272072556
 31
0.0
  0
LINE
  5
26F7
330
23
100
AcDbEntity
  8
sanindusa
100
AcDbLine
 10
202.8141764507816
 20
140.7055272100868
 30
0.0
 11
202.8141764507816
 21
140.9155272072556
 31
0.0
  0
LINE
  5
26F8
330
23
100
AcDbEntity
  8
sanindusa
100
AcDbLine
 10
202.8141764507816
 20
140.7055272100868
 30
0.0
 11
202.8111764507555
 21
140.7055272100868
 31
0.0
  0
LINE
  5
26F9
330
23
100
AcDbEntity
  8
sanindusa
100
AcDbLine
 10
202.8111764507555
 20
140.7055272100868
 30
0.0
 11
202.8111764507555
 21
140.9155272072556
 31
0.0
  0
LINE
  5
26FA
330
23
100
AcDbEntity
  8
sanindusa
100
AcDbLine
 10
202.8106011900307
 20
140.8935272073748
 30
0.0
 11
202.8106011900307
 21
140.899527204633
 31
0.0
  0
LINE
  5
26FB
330
23
100
AcDbEntity
  8
sanindusa
100
AcDbLine
 10
202.8106011900307
 20
140.7215272108468
 30
0.0
 11
202.8106011900307
 21
140.7275272099676
 31
0.0
  0
LINE
  5
26FC
330
23
100
AcDbEntity
  8
sanindusa
100
AcDbLine
 10
202.7991764511169
 20
140.7275272099676
 30
0.0
 11
202.7991764511169
 21
140.7215272108468
 31
0.0
  0
LINE
  5
26FD
330
23
100
AcDbEntity
  8
sanindusa
100
AcDbLine
 10
202.7991764511169
 20
140.899527204633
 30
0.0
 11
202.7991764511169
 21
140.8935272073748
 31
0.0
  0
LINE
  5
26FE
330
23
100
AcDbEntity
  8
sanindusa
100
AcDbLine
 10
202.841176451482
 20
140.7605272135141
 30
0.0
 11
202.841176451482
 21
140.7382772094014
 31
0.0
  0
LINE
  5
26FF
330
23
100
AcDbEntity
  8
sanindusa
100
AcDbLine
 10
202.841176451482
 20
140.7605272135141
 30
0.0
 11
202.841176451482
 21
140.7827772101762
 31
0.0
  0
LINE
  5
2700
330
23
100
AcDbEntity
  8
sanindusa
100
AcDbLine
 10
202.8021764506773
 20
140.8605272150042
 30
0.0
 11
202.8021764506773
 21
140.8380272066596
 31
0.0
  0
LINE
  5
2701
330
23
100
AcDbEntity
  8
sanindusa
100
AcDbLine
 10
202.8021764506773
 20
140.8830272084477
 30
0.0
 11
202.8021764506773
 21
140.8605272150042
 31
0.0
  0
LINE
  5
2702
330
23
100
AcDbEntity
  8
sanindusa
100
AcDbLine
 10
202.8583764502034
 20
140.8605272150042
 30
0.0
 11
202.8583764502034
 21
140.8380272066596
 31
0.0
  0
LINE
  5
2703
330
23
100
AcDbEntity
  8
sanindusa
100
AcDbLine
 10
202.8853764490412
 20
140.8380272066596
 30
0.0
 11
202.8853764490412
 21
140.8830272084477
 31
0.0
  0
ARC
  5
2704
330
23
100
AcDbEntity
  8
sanindusa
100
AcDbCircle
 10
202.8743756871238
 20
140.8160444368783
 30
0.0
 40
0.0225440577012898
100
AcDbArc
 50
77.35550925858643
 51
102.8120800020002
  0
LWPOLYLINE
  5
2705
330
23
100
AcDbEntity
  8
sanindusa
100
AcDbPolyline
 90
       18
 70
   128
 43
0.0
 10
202.8663764515147
 20
140.8830272084477
 10
202.8663423241303
 20
140.8829312300684
 10
202.866240236275
 20
140.8826440995934
 10
202.8660710559414
 20
140.8821682906153
 10
202.8658362285421
 20
140.8815078413489
 10
202.8655377582834
 20
140.880668384433
 10
202.8651781895385
 20
140.8796571022274
 10
202.8647605882214
 20
140.8784825927021
 10
202.86428852316
 20
140.8771549141409
 10
202.863766017668
 20
140.875685361624
 10
202.8631975271926
 20
140.8740864968302
 10
202.8625879095123
 20
140.8723719394209
 10
202.8619423576818
 20
140.8705563223364
 10
202.8612663851307
 20
140.8686551427843
 10
202.8605657548831
 20
140.8666846281292
 10
202.8598464460299
 20
140.8646615719798
 10
202.8591145978496
 20
140.8626032447817
 10
202.8583764502034
 20
140.8605272150042
  0
LINE
  5
2706
330
23
100
AcDbEntity
  8
sanindusa
100
AcDbLine
 10
202.8636764505134
 20
140.875433457494
 30
0.0
 11
202.8636764505134
 21
140.8765272176268
 31
0.0
  0
LINE
  5
2707
330
23
100
AcDbEntity
  8
sanindusa
100
AcDbLine
 10
202.8746764504538
 20
140.7755272141101
 30
0.0
 11
202.860176450871
 21
140.7755272141101
 31
0.0
  0
LINE
  5
2708
330
23
100
AcDbEntity
  8
sanindusa
100
AcDbLine
 10
202.8891764537618
 20
140.7755272141101
 30
0.0
 11
202.8746764504538
 21
140.7755272141101
 31
0.0
  0
LINE
  5
2709
330
23
100
AcDbEntity
  8
sanindusa
100
AcDbLine
 10
202.860176450871
 20
140.6965272104742
 30
0.0
 11
202.8891764537618
 21
140.6965272104742
 31
0.0
  0
LWPOLYLINE
  5
270A
330
23
100
AcDbEntity
  8
sanindusa
100
AcDbPolyline
 90
       18
 70
   128
 43
0.0
 10
202.8890879855679
 20
140.7249244297298
 10
202.8890061185883
 20
140.724829220623
 10
202.8882195309923
 20
140.7239032848182
 10
202.8874155611918
 20
140.7229332154992
 10
202.8864340142534
 20
140.721705458537
 10
202.8851212368534
 20
140.7199497124555
 10
202.8837632940338
 20
140.7178723695132
 10
202.8824936852978
 20
140.7151935207101
 10
202.8820345805214
 20
140.7129041808101
 10
202.8822840408609
 20
140.7105586132409
 10
202.88345770102
 20
140.7077198908108
 10
202.8847102106736
 20
140.7056952048468
 10
202.8860332996772
 20
140.7038682214359
 10
202.8870710835979
 20
140.702545883544
 10
202.8879933090137
 20
140.7014214153776
 10
202.8889587254451
 20
140.7002804392858
 10
202.8891764537618
 20
140.7000272105823
 10
202.8891764537618
 20
140.7000272105823
  0
LWPOLYLINE
  5
270B
330
23
100
AcDbEntity
  8
sanindusa
100
AcDbPolyline
 90
       18
 70
   128
 43
0.0
 10
202.8602708161996
 20
140.7482377639415
 10
202.8602231771873
 20
140.7481818808618
 10
202.8608073138819
 20
140.7488711862268
 10
202.861992921047
 20
140.7503104633095
 10
202.8631017946825
 20
140.7517247883978
 10
202.8643395596371
 20
140.7534306398036
 10
202.8655506254361
 20
140.7553512355688
 10
202.8666099378095
 20
140.757598282248
 10
202.867134823762
 20
140.7599058276417
 10
202.866953960918
 20
140.7623011446001
 10
202.8658922680841
 20
140.765073848367
 10
202.8650592782722
 20
140.7665272107723
 10
202.8637989380584
 20
140.7683904370668
 10
202.8625462905691
 20
140.7700482806566
 10
202.8616875105725
 20
140.7711207246783
 10
202.8609594659136
 20
140.7720017781856
 10
202.8602531694994
 20
140.7728374129536
 10
202.860275018327
 20
140.7728117978575
  0
LINE
  5
270C
330
23
100
AcDbEntity
  8
sanindusa
100
AcDbLine
 10
203.0804264650867
 20
140.6467130458357
 30
0.0
 11
203.1049264476822
 21
140.6467130458357
 31
0.0
  0
LINE
  5
270D
330
23
100
AcDbEntity
  8
sanindusa
100
AcDbLine
 10
203.1046764359996
 20
140.6457130438092
 30
0.0
 11
203.0806764469669
 21
140.6457130438092
 31
0.0
  0
LINE
  5
270F
330
23
100
AcDbEntity
  8
sanindusa
100
AcDbLine
 10
203.0816764638947
 20
140.6407130448523
 30
0.0
 11
203.0816764638947
 21
140.6382130435112
 31
0.0
  0
LINE
  5
2710
330
23
100
AcDbEntity
  8
sanindusa
100
AcDbLine
 10
203.0806764469669
 20
140.6407130448523
 30
0.0
 11
203.0816764638947
 21
140.6407130448523
 31
0.0
  0
LINE
  5
2711
330
23
100
AcDbEntity
  8
sanindusa
100
AcDbLine
 10
203.1036764488743
 20
140.6407130448523
 30
0.0
 11
203.1046764359996
 21
140.6407130448523
 31
0.0
  0
LINE
  5
2712
330
23
100
AcDbEntity
  8
sanindusa
100
AcDbLine
 10
203.1036764488743
 20
140.6382130435112
 30
0.0
 11
203.1036764488743
 21
140.6407130448523
 31
0.0
  0
LINE
  5
2713
330
23
100
AcDbEntity
  8
sanindusa
100
AcDbLine
 10
203.1036764488743
 20
140.6377130462232
 30
0.0
 11
203.1036764488743
 21
140.6382130435112
 31
0.0
  0
LINE
  5
2714
330
23
100
AcDbEntity
  8
sanindusa
100
AcDbLine
 10
203.0816764638947
 20
140.6377130462232
 30
0.0
 11
203.1036764488743
 21
140.6377130462232
 31
0.0
  0
LINE
  5
2715
330
23
100
AcDbEntity
  8
sanindusa
100
AcDbLine
 10
203.0816764638947
 20
140.6382130435112
 30
0.0
 11
203.0816764638947
 21
140.6377130462232
 31
0.0
  0
LINE
  5
2716
330
23
100
AcDbEntity
  8
sanindusa
100
AcDbLine
 10
202.8693764501439
 20
140.7900272136929
 30
0.0
 11
202.879376451783
 21
140.7900272136929
 31
0.0
  0
LINE
  5
2718
330
23
100
AcDbEntity
  8
sanindusa
100
AcDbLine
 10
202.8535577238725
 20
140.8380272066596
 30
0.0
 11
202.8535577238725
 21
140.8830272084477
 31
0.0
  0
ENDSEC
  0
SECTION
  2
OBJECTS
  0
DICTIONARY
  5
C
330
0
100
AcDbDictionary
281
     1
  3
ACAD_COLOR
350
1C
  3
ACAD_GROUP
350
D
  3
ACAD_LAYOUT
350
1A
  3
ACAD_MATERIAL
350
1B
  3
ACAD_MLINESTYLE
350
17
  3
ACAD_PLOTSETTINGS
350
19
  3
ACAD_PLOTSTYLENAME
350
E
  3
ACAD_TABLESTYLE
350
1D
  3
ACDBHEADERROUNDTRIPXREC
350
271E
  3
AcDbVariableDictionary
350
867
  0
DICTIONARY
  5
86D
330
23
100
AcDbDictionary
280
     1
281
     1
  3
ACAD_SORTENTS
360
86E
  0
DICTIONARY
  5
1C
102
{ACAD_REACTORS
330
C
102
}
330
C
100
AcDbDictionary
281
     1
  0
DICTIONARY
  5
D
102
{ACAD_REACTORS
330
C
102
}
330
C
100
AcDbDictionary
281
     1
  0
DICTIONARY
  5
1A
102
{ACAD_REACTORS
330
C
102
}
330
C
100
AcDbDictionary
281
     1
  3
Layout1
350
22
  3
Layout2
350
2A
  3
Model
350
26
  0
DICTIONARY
  5
1B
102
{ACAD_REACTORS
330
C
102
}
330
C
100
AcDbDictionary
281
     1
  0
DICTIONARY
  5
17
102
{ACAD_REACTORS
330
C
102
}
330
C
100
AcDbDictionary
281
     1
  3
Standard
350
18
  0
DICTIONARY
  5
19
102
{ACAD_REACTORS
330
C
102
}
330
C
100
AcDbDictionary
281
     1
  0
ACDBDICTIONARYWDFLT
  5
E
102
{ACAD_REACTORS
330
C
102
}
330
C
100
AcDbDictionary
281
     1
  3
Normal
350
F
100
AcDbDictionaryWithDefault
340
F
  0
DICTIONARY
  5
1D
102
{ACAD_REACTORS
330
C
102
}
330
C
100
AcDbDictionary
281
     1
  3
Standard
350
1E
  0
DICTIONARY
  5
271E
102
{ACAD_REACTORS
330
C
102
}
330
C
100
AcDbDictionary
281
     1
  0
DICTIONARY
  5
867
102
{ACAD_REACTORS
330
C
102
}
330
C
100
AcDbDictionary
281
     1
  3
CTABLESTYLE
350
868
  3
DIMASSOC
350
87A
  3
HIDETEXT
350
879
  3
PROJECTNAME
350
87B
  0
SORTENTSTABLE
  5
86E
102
{ACAD_REACTORS
330
86D
102
}
330
86D
100
AcDbSortentsTable
330
23
  0
LAYOUT
  5
22
102
{ACAD_XDICTIONARY
360
271F
102
}
102
{ACAD_REACTORS
330
1A
102
}
330
1A
100
AcDbPlotSettings
  1

  2
HP DesignJet 500PS42+HPGL2 Card
  4

  6

 40
0.0
 41
0.0
 42
0.0
 43
0.0
 44
0.0
 45
0.0
 46
0.0
 47
0.0
 48
0.0
 49
0.0
140
0.0
141
0.0
142
1.0
143
1.0
 70
   688
 72
     0
 73
     0
 74
     5
  7
C:\Documents and Settings\Julio\Application Data\Autodesk\AutoCAD 2006\R16.2\enu\Plot Styles\sanindusa.ctb
 75
    16
147
1.0
148
0.0
149
0.0
100
AcDbLayout
  1
Layout1
 70
     1
 71
     1
 10
0.0
 20
0.0
 11
420.0
 21
297.0
 12
0.0
 22
0.0
 32
0.0
 14
1.000000000000000E+20
 24
1.000000000000000E+20
 34
1.000000000000000E+20
 15
-1.000000000000000E+20
 25
-1.000000000000000E+20
 35
-1.000000000000000E+20
146
0.0
 13
0.0
 23
0.0
 33
0.0
 16
1.0
 26
0.0
 36
0.0
 17
0.0
 27
1.0
 37
0.0
 76
     0
330
1F
  0
LAYOUT
  5
2A
102
{ACAD_XDICTIONARY
360
2723
102
}
102
{ACAD_REACTORS
330
1A
102
}
330
1A
100
AcDbPlotSettings
  1

  2
HP DesignJet 500PS42+HPGL2 Card
  4

  6

 40
0.0
 41
0.0
 42
0.0
 43
0.0
 44
0.0
 45
0.0
 46
0.0
 47
0.0
 48
0.0
 49
0.0
140
0.0
141
0.0
142
1.0
143
1.0
 70
   688
 72
     0
 73
     0
 74
     5
  7
C:\Documents and Settings\Julio\Application Data\Autodesk\AutoCAD 2006\R16.2\enu\Plot Styles\sanindusa.ctb
 75
    16
147
1.0
148
0.0
149
0.0
100
AcDbLayout
  1
Layout2
 70
     1
 71
     2
 10
0.0
 20
0.0
 11
12.0
 21
9.0
 12
0.0
 22
0.0
 32
0.0
 14
0.0
 24
0.0
 34
0.0
 15
0.0
 25
0.0
 35
0.0
146
0.0
 13
0.0
 23
0.0
 33
0.0
 16
1.0
 26
0.0
 36
0.0
 17
0.0
 27
1.0
 37
0.0
 76
     0
330
27
  0
LAYOUT
  5
26
102
{ACAD_XDICTIONARY
360
2721
102
}
102
{ACAD_REACTORS
330
1A
102
}
330
1A
100
AcDbPlotSettings
  1

  2
HP DesignJet 500PS42+HPGL2 Card
  4

  6

 40
0.0
 41
0.0
 42
0.0
 43
0.0
 44
0.0
 45
0.0
 46
0.0
 47
0.0
 48
0.0
 49
0.0
140
0.0
141
0.0
142
1.0
143
1.0
 70
  1712
 72
     0
 73
     0
 74
     0
  7
C:\Documents and Settings\Julio\Application Data\Autodesk\AutoCAD 2006\R16.2\enu\Plot Styles\sanindusa.ctb
 75
     0
147
1.0
148
0.0
149
0.0
100
AcDbLayout
  1
Model
 70
     1
 71
     0
 10
0.0
 20
0.0
 11
12.0
 21
9.0
 12
0.0
 22
0.0
 32
0.0
 14
0.0
 24
0.0
 34
0.0
 15
0.0
 25
0.0
 35
0.0
146
0.0
 13
0.0
 23
0.0
 33
0.0
 16
1.0
 26
0.0
 36
0.0
 17
0.0
 27
1.0
 37
0.0
 76
     0
330
23
  0
MLINESTYLE
  5
18
102
{ACAD_REACTORS
330
17
102
}
330
17
100
AcDbMlineStyle
  2
STANDARD
 70
     0
  3

 62
   256
 51
90.0
 52
90.0
 71
     2
 49
0.5
 62
   256
  6
BYLAYER
 49
-0.5
 62
   256
  6
BYLAYER
  0
ACDBPLACEHOLDER
  5
F
102
{ACAD_REACTORS
330
E
102
}
330
E
  0
TABLESTYLE
  5
1E
102
{ACAD_REACTORS
330
1D
102
}
330
1D
100
AcDbTableStyle
  3
Standard
 70
     0
 71
     0
 40
1.5
 41
1.5
280
     0
281
     0
  7
Standard
140
4.5
170
     2
 62
     0
 63
     7
283
     0
274
    -2
284
     1
 64
     0
275
    -2
285
     1
 65
     0
276
    -2
286
     1
 66
     0
277
    -2
287
     1
 67
     0
278
    -2
288
     1
 68
     0
279
    -2
289
     1
 69
     0
  7
Standard
140
6.0
170
     5
 62
     0
 63
     7
283
     0
274
    -2
284
     1
 64
     0
275
    -2
285
     1
 65
     0
276
    -2
286
     1
 66
     0
277
    -2
287
     1
 67
     0
278
    -2
288
     1
 68
     0
279
    -2
289
     1
 69
     0
  7
Standard
140
4.5
170
     5
 62
     0
 63
     7
283
     0
274
    -2
284
     1
 64
     0
275
    -2
285
     1
 65
     0
276
    -2
286
     1
 66
     0
277
    -2
287
     1
 67
     0
278
    -2
288
     1
 68
     0
279
    -2
289
     1
 69
     0
  0
DICTIONARYVAR
  5
868
102
{ACAD_REACTORS
330
867
102
}
330
867
100
DictionaryVariables
280
     0
  1
STANDARD
  0
DICTIONARYVAR
  5
87A
102
{ACAD_REACTORS
330
867
102
}
330
867
100
DictionaryVariables
280
     0
  1
2
  0
DICTIONARYVAR
  5
879
102
{ACAD_REACTORS
330
867
102
}
330
867
100
DictionaryVariables
280
     0
  1
1
  0
DICTIONARYVAR
  5
87B
102
{ACAD_REACTORS
330
867
102
}
330
867
100
DictionaryVariables
280
     0
  1

  0
DICTIONARY
  5
271F
330
22
100
AcDbDictionary
280
     1
281
     1
  3
ACAD_XREC_ROUNDTRIP
360
2720
  0
DICTIONARY
  5
2723
330
2A
100
AcDbDictionary
280
     1
281
     1
  3
ACAD_XREC_ROUNDTRIP
360
2724
  0
DICTIONARY
  5
2721
330
26
100
AcDbDictionary
280
     1
281
     1
  3
ACAD_XREC_ROUNDTRIP
360
2722
  0
XRECORD
  5
2720
102
{ACAD_REACTORS
330
271F
102
}
330
271F
100
AcDbXrecord
280
     1
102
SHADEPLOT
 70
     0
102
SHADEPLOTRESLEVEL
 70
     2
102
SHADEPLOTCUSTOMDPI
 70
   300
  0
XRECORD
  5
2724
102
{ACAD_REACTORS
330
2723
102
}
330
2723
100
AcDbXrecord
280
     1
102
SHADEPLOT
 70
     0
102
SHADEPLOTRESLEVEL
 70
     2
102
SHADEPLOTCUSTOMDPI
 70
   300
  0
XRECORD
  5
2722
102
{ACAD_REACTORS
330
2721
102
}
330
2721
100
AcDbXrecord
280
     1
102
SHADEPLOT
 70
     0
102
SHADEPLOTRESLEVEL
 70
     2
102
SHADEPLOTCUSTOMDPI
 70
   300
  0
ENDSEC
  0
EOF
